Oops, an error
Loading. Please wait.

Corazones Rojos bass

446 views 3 this week
no commentswrite comment
1 2 3 4 5
3 more votes to show rating
add to favorites
×
Save as Personal and add changes to this tab that will be seen only by you. Learn more ›
×
You can save this tab as Personal to edit and correct it or add notes. All changes will be seen only by you. Learn more »
launch autoscroll
font size
0
reset
guitar tuner
edit
Autoscroll
slow
fast
+/-
esc
set tempo
stop
YA  ACA ESTA EL BAJO KE SACAMOS CON EL MAPACHE DE VIÑA 2003 
ESPERO KE LES GUSTE. DUDAS? TENGO MSN! ITURRI18@


 Corazones rojos,corazones fuertes espaldas debiles ...(no hay bajo).
 porque yo soy un hombre y no te puedo mirar...

1)--------------------------------------------------
2)----------------------------------5-3-------------
3)--0-3-5-5-5--0-3-5-----0-3-5-5-5------5-----------
4)--------------------------------------------------

No estas autorizada para dar opinion........

1)--------------------------------------------------
2)----------------------------------5-3-------------
3)--0-3-5-5---0-3-5-5-5---0-3-5-5-------5-----------
4)--------------------------------------------------

B)Coro:¡Hey!mujeres ¡Hey!mujeres

1)--------------------------------------------------
2)--------------------------------------------------
3)-5---5-3-5-3-1---1-3-3-5-5-3----------------------
4)--------------------------------------------------
                                     repetir 2 veces

Para cuando a veces nos emborrachamos....
1)-3-4-5---------------------------------------------
2)-------3-4-5---------------------------------------
3)-------------3-4-5---------------------------------
4)---------------------------------------------------

B)Se repite el coro.


Dios así lo quiso, Dios tb es hombre

1)--------------------------------------------------
2)--------------------------------------------------
3)-5-5-5--5-3-3-3-5-5-3-1-1-1--1-3-3-3-5--5-3-------
4)--------------------------------------------------
                            se repite hasta el final
                                

                                 CHAAAAUU

            
            
Suggest correction
Creating personal tab
Creating personal tab
You can edit any tab online and save it as your Personal.

You can edit, replace or remove any tab part or add personal notes – all changes will be seen only by you.

Personal tabs can be accessed anytime from any device, even offline.
Learn more »
Give kudos to tab author, rate the tab!
1 2 3 4 5
comments
print report bad tab
guest
Wanna post a correction for this tab? Suggest correction