Oops, an error
Loading. Please wait.

Eve-Evelyn tab

version 1
version 1

Whole song

130 views 1 this week
no commentswrite comment
1 2 3 4 5
3 more votes to show rating
add to favorites
×
Save as Personal and add changes to this tab that will be seen only by you. Learn more ›
×
You can save this tab as Personal to edit and correct it or add notes. All changes will be seen only by you. Learn more »
launch autoscroll
font size
0
reset
how to read this tab
guitar tuner
edit
Autoscroll
slow
fast
+/-
esc
set tempo
stop
Saludos, esta es una corrección del tema que envié anteriormente.
Recueden ponerle distorsión para que no suene seco.

-.-.-.-.-.-.-.-.-.-.-.-.-.-.-.-.-.-.-.-.-.-.-.-.-.-.-.-.-.-.-.-.-

*Canción*

Intro 
      *Do5*                          *La5*            
   e|-------------------------------|----------------------------|
   b|-------------------------------|----------------------------|
   g|-------------------------------|----------------------------|
   d|-10-x-x-9-9-10-x-x-x-x-x-x-10/-|-7-x-x-6-6-7-x-x-x-x-x-x-7/-|
   a|-10-x-x-9-9-10-x-x-x-x-x-x-10/-|-7-x-x-6-6-7-x-x-x-x-x-x-7/-|
   E|-8 -x-x-7-7-8 -x-x-x-x-x-x-8 /-|-5-x-x-4-4-5-x-x-x-x-x-x-5/-|
   
A)
    *Do5*                    *La5*     
  Te confundo en las sombras       voy tras tu respiración  
  *Do5*                   *La5*     
  mis palabras son torpes       dominas la situación 
  *Do5*                       *La5*     
  dame un poco más de tu boca       toda tu piel me provoca  
A)
  En el suelo embarrada, está mi dignidad.  
  Mis complejos mis traumas, sabes bien manejar.
  Poco a poco tu asesinas al poeta estúpido y  

B)  
  RE5         LA5 
  No vuelvo a ser igual, 
  RE5         SOL5  
  tú me sabes transformar  
  RE5        LA5 
  después de ti nací,  
  RE5        SOL5
  después de ti morí. 
  DO5                         
  Siento y río y mato y creo y  
  piso y lloro y corro y te grito 
  
C)
  DO5                             LA5  
  Eve, eve, eve, eve, eve, eve-Evelyn 

A)  
  No distingo a donde naces tú muero yo 
  ya mis ojos se nublan 
  ya tirita mi voz 
  Dame un poco mas de tu boca 
  toda tu piel me provoca 
  
A)
  Esta noche no pienso 
  hoy me dejo llevar 
  desarmado y desnudo 
  he perdido el control 
  Poco a poco tu asesinas 
  al poeta estúpido y 

B)
  No vuelvo a ser igual 
  tú me sabes transformar  
  después de ti nací 
  después de ti morí 
  Siento y río y mato y creo  
  y piso y lloro y corro y te grito 

C)
  Eve, eve, eve, eve, eve, eve-Evelyn 

D)  
  LAm-DOm-LAm-DOm-LAm-DOm 
  Evelyn 


-.-.-.-.-.-.-.-.-.-.-.-.-.-.-.-.-.-.-.-.-.-.-.-.-.-.-.-.-.-.-.-.-.

Acordes Usados.
 | DO5  RE5  SOL5  SOL#5  LA5  SI5 | LAm  DOm |
e|---------------------------------|--5----3--|
b|---------------------------------|--5----4--|
g|---------------------------------|--6----5--|
d|--10---7----5------6-----7----9--|--7----5--|
a|--10---7----5------6-----7----9--|----------|
E|--8 ---5----3------4-----5----7--|----------|

-------------------------------------------------------
Cualquier consulta o duda a rall_hardcore13@

Transcrita por Raúl Calderón.
-------------------------------------------------------

            
            
Suggest correction
Creating personal tab
Creating personal tab
You can edit any tab online and save it as your Personal.

You can edit, replace or remove any tab part or add personal notes – all changes will be seen only by you.

Personal tabs can be accessed anytime from any device, even offline.
Learn more »
Give kudos to tab author, rate the tab!
1 2 3 4 5
comments
print report bad tab
guest
Wanna post a correction for this tab? Suggest correction