Oops, an error
Loading. Please wait.

Eve-Evelyn tab

version 2
version 2

Whole song

123 views 1 this week
no commentswrite comment
1 2 3 4 5
3 more votes to show rating
add to favorites
×
Save as Personal and add changes to this tab that will be seen only by you. Learn more ›
×
You can save this tab as Personal to edit and correct it or add notes. All changes will be seen only by you. Learn more »
launch autoscroll
font size
0
reset
how to read this tab
guitar tuner
edit
Autoscroll
slow
fast
+/-
esc
set tempo
stop
Esta canción es super facil,es un correccion de las otras y ademas
es mi primer tab k mando y dice mas o menos así....

Intro
Riff1
      C5  C/F#  C               C C    A  A/D# A             A     
   e|-----------------------------------------------------------|
   b|-----------------------------------------------------------|
   g|-----------------------------------------------------------|
   d|-----------------------------------------------------------|x2
   a|-10-x-9-x-10--x-x-x-x-x-x-10-10/--7-x-6-x-7-x-x-x-x-x-x-7/-|
   E|--8-x-8-x-8---x-x-x-x-x-x--8--8/--5-x-5-x-5-x-x-x-x-x-x-5/-|
   
*Riff1
                         
  Te confundo en las sombras       voy tras tu respiración  
  mis palabras son torpes       dominas la situación
  dame un poco más de tu boca       toda tu piel me provoca  

  En el suelo embarrada, está mi dignidad.  
  Mis complejos mis traumas, sabes bien manejar.
  Poco a poco tu asesinas al poeta estúpido y  

Coro
*Riff2  
   D5          A5 
  No vuelvo a ser igual, 
   D5          G5  
  tú me sabes transformar  
   D5          A5 
  después de ti nací,  
   D5          G5
  después de ti morí. 
   C5                         
  Siento y río y mato y creo y  
  piso y lloro y corro y te gritoo 
  
*Riff3
  DO5                             LA5  
  Eve, eve, eve, eve, eve, eve-Evelyn 

*Riff1  
  No distingo a donde     naces tú y muero yo 
  ya mis ojos se nublan   ya tirita mi voz
  Dame un poco mas de tu boca   toda tu piel me provoca 

  Esta noche no pienso    hoy me dejo llevar
  desarmado y desnudo    he perdido el control
  Poco a poco tu asesinas  al poeta estúpido
  
*Riff2  
  No vuelvo a ser igual 
  tú me sabes transformar  
  después de ti nací 
  después de ti morí 
  Siento y río y mato y creo  
  y piso y lloro y corro y te grito 

*Riff2
  Eve, eve, eve, eve, eve, eve-Evelyn 

*solo de bajo mientras la guitarra hace esto:  
  Am - Cm - Am - Cm - Am - Cm 
  Evelyn 

=estos son los acordes de cada riff=

*-Riff2
    D5              A5       D5              G5         C5
e|-------------------------------------------------------------| 
b|-------------------------------------------------------------|     
g|-------------------------------------------------------------|
d|-------------------------------------------------------------|
a|--12-12-12-12-12/-7-7-7-7/-12-12-12-12-12/-5-5-5-5-5/-10-10--|
E|--10-10-10-10-10/-5-5-5-5/-10-10-10-10-10/-3-3-3-3-3/--8--8--|


*-Riff3
  
    C5                   A5
e|----------------------------------|
b|----------------------------------|     
g|----------------------------------|
d|----------------------------------|
a|-10-10-10-10-10-10-10--7-7-7-7-7--|
E|--8--8--8--8--8--8--8--5-5-5-5-5--|


*-solo de bajo mientras la guitarra hace esto:
    Am           Cm
e|-----------------------------| 
b|-----------------------------|     
g|-----------------------------|
d|--5-5-5-5-5-5--8-8-8-8-8-8---|x2
a|--5-5-5-5-5-5--8-8-8-8-8-8---|
E|--5-5-5-5-5-5--8-8-8-8-8-8---|

Saludos a todos los K me conocen auque no creo k
muchos la vean pero igual....

            
            
Suggest correction
Creating personal tab
Creating personal tab
You can edit any tab online and save it as your Personal.

You can edit, replace or remove any tab part or add personal notes – all changes will be seen only by you.

Personal tabs can be accessed anytime from any device, even offline.
Learn more »
Give kudos to tab author, rate the tab!
1 2 3 4 5
comments
print report bad tab
guest
Wanna post a correction for this tab? Suggest correction