Oops, an error
Loading. Please wait.

Invitado De Honor bass

47 views 1 this week
no commentswrite comment
1 2 3 4 5
3 more votes to show rating
add to favorites
×
Save as Personal and add changes to this tab that will be seen only by you. Learn more ›
×
You can save this tab as Personal to edit and correct it or add notes. All changes will be seen only by you. Learn more »
launch autoscroll
font size
0
reset
guitar tuner
edit
Autoscroll
slow
fast
+/-
esc
set tempo
stop
Esta canción es una de mis favoritas.
Es bastante corta y se toca bien rápido. En algunas
partes ponle color y te va a quedar bacán.
(Dedicado al Makina y a V. Lenin.)

(Intro de batería, luego viene el bajo)

     Para tomar tecito con el presi....
a) G|-------------------------
   D|--77---------------------  X4
   A|----77--55---------------
   E|-------------------------
 
     Jimmy Swaggart, Jimmy Swaggart..!
b) G|-------------------------
   D|-------------------------
   A|-0-7-0-7--55-------------
   E|-------------------------

     (Intermedio)
c) G|-------------------------
   D|-------------------------
   A|-5555555555555-----------
   E|-------------------------

a)Llévate un chancho de Quinchamalí
  ven a tomar tecito con el presi
  llévate un chancho de Quinchamalí
b)¡¡¡VEN A CHUPARLE LA PENCA AL PRESIDENTE!!!

c)intermedio

b)Jimmy Swaggart..(en esta sí que hay que meterle color!)

Fin:

   G|--------------------------
   D|--------------------------    
   A|-5---3-5-----3-555--------
   E|--------------------------

   ¡¡¡ESO!!!
Suggest correction
Creating personal tab
Creating personal tab
You can edit any tab online and save it as your Personal.

You can edit, replace or remove any tab part or add personal notes – all changes will be seen only by you.

Personal tabs can be accessed anytime from any device, even offline.
Learn more »
Give kudos to tab author, rate the tab!
1 2 3 4 5
comments
print report bad tab
guest
Wanna post a correction for this tab? Suggest correction