Oops, an error
Loading. Please wait.

La Voz De Los 80 Bass Tab

version 1
version 1

Whole song

Interactive

13,108 views 39 this week
no commentswrite comment
1 2 3 4 5
please rate
add to favorites
launch autoscroll
font size
0
reset
guitar tuner
Autoscroll
slow
fast
+/-
esc
set tempo
stop
Help us to improve Ultimate-Guitar.com Take our survey!
×
Author
+++++++++++++++++++++++++++++++++++++
| Los Prisioneros- La Voz De Los 80 |
+++++++++++++++++++++++++++++++++++++


"Sangre latina necesita el mundo, roja furiosa y adolescente..."

Tuning: EADG


Intro
1.
G|-------------------------------------|
D|-------------------------------------|
A|---667799---667799---667799---667799-|
E|-77-------77-------77-------77-------|

Verse
"Algo grande está naciendo..."
2.
G|-------------------------------------------------------------------------|
D|------------667799---445577---------------------667799---445577----------|
A|---667799-77-------55---------445577---667799-77-------55---------445577-|--x2
E|-77-------------------------55-------77-------------------------55-------|

3.
G|-------------------------------------|
D|-------------------------------------|
A|---667799---667799---667799---667799-|
E|-77-------77-------77-------77-------|

"Las juventudes cacarearon bastante..."
4.
G|-------------------------------------------------------------------------|
D|------------667799---445577---------------------667799---445577----------|
A|---667799-77-------55---------445577---667799-77-------55---------445577-|--x2
E|-77-------------------------55-------77-------------------------55-------|

Chorus
"Ya viene la fuerza, la voz de los 80..."
5.
G|-------------------------------------------------------------------------------------------|
D|-------------------------------------------------------------------------------------------|
A|-22222222-00000000-------------------22222222-00000000-------------------------------------|
E|-------------------44444444-33333333-------------------44444444-33333333-44444444-33333333-|

Outro
6.
G|-------------------------------------|
D|-------------------------------------|
A|---667799---667799---667799---667799-|
E|-77-------77-------77-------77-------|

Verse
"En Roma, Lima y en Santander..."
7.
G|-------------------------------------------------------------------------|
D|------------667799---445577---------------------667799---445577----------|
A|---667799-77-------55---------445577---667799-77-------55---------445577-|--x2
E|-77-------------------------55-------77-------------------------55-------|

Chorus
"Ya viene la fuerza, la voz de los 80..."
8.
G|-------------------------------------------------------------------------------------------|
D|-------------------------------------------------------------------------------------------|
A|-22222222-00000000-------------------22222222-00000000-------------------------------------|
E|-------------------44444444-33333333-------------------44444444-33333333-44444444-33333333-|

Outro
9.
G|-------------------------------------|
D|-------------------------------------|
A|---667799---667799---667799---667799-|
E|-77-------77-------77-------77-------|

Bridge
10.
G|-------------------------------------------------------------------------|
D|------------667799---445577---------------------667799---445577----------|
A|---667799-77-------55---------445577---667799-77-------55---------445577-|
E|-77-------------------------55-------77-------------------------55-------|

"En plena edad del plastico..."
11.
G|-------------------------------------------------------|
D|------------667799---445577---------------------667799-|
A|---667799-77-------55---------445577---667799-77-------|
E|-77-------------------------55-------77----------------|

"En los ochenta tu rol es estelar..."
12.
G|---------------------334466---334466---------------------334466---334466-|
D|---445577---445577-44-------44---------445577---445577-44-------44-------|
A|-55-------55-------------------------55-------55-------------------------|
E|-------------------------------------------------------------------------|

"De las entrañas de nuestras ciudades..."
13.
G|-------------------------------------|
D|-------------------------------------|
A|-------------------------------------|
E|-33333333-33333333-55555555-22222222-|

Chorus
"Ya viene la fuerza, la voz de los 80..."
14.
G|-------------------------------------------------------------------------------------------|
D|-------------------------------------------------------------------------------------------|
A|-22222222-00000000-------------------22222222-00000000-------------------------------------|
E|-------------------44444444-33333333-------------------44444444-33333333-44444444-33333333-|

Outro
15.
G|-------------------------------------|
D|-------------------------------------|
A|---667799---667799---667799---667799-|
E|-77-------77-------77-------77-------|

Bridge
"Escucha el murmullo..."
16.
G|-------------------------------------------------------------------------|
D|-------------------------------------------------------------------------|
A|----------7~-------5~-------------------------7~-------5~----------------|
E|-7~-------------------------5~-------7~-------------------------5~-------|

"Mira nuestra juventud..."
17.
G|------------------------------------------------------------------------|
D|------------9~-------7~-------------------------9~-------7~-------------|
A|---9~-----77-------55---------7~-------9~-----77-------55---------------|
E|-77-------------------------55-------77-------------------------555-5-5-|

"Deja la inercia de los setentas..."
18.
G|-------------------------------------------------------------------------|
D|-------------------------------------------------------------------------|
A|----------7xx7xx7x-5xx5xx5x-------------------7xx7xx7x-5xx5xx5x----------|
E|-7xx7xx7x-------------------5xx5xx5x-7xx7xx7x-------------------5xx5xx5x-|

Chorus
"Ya viene la fuerza, la voz de los 80..."
19.
G|-------------------------------------------------------------------------|
D|-------------------------------------------------------------------------|
A|-22222222-00000000-------------------22222222-00000000-------------------|--x2
E|-------------------44444444-33333333-------------------44444444-33333333-|

"La voz de los 80..."
20.
G|-------------------------------------------------------|
D|-------------------------------------------------------|
A|-22222222-00000000-------------------------------------|
E|-------------------44444444-33333333-44444444-33333333-|

Outro
21.
G|-----------------------------------------|
D|--124--124--124--124--124--1-------------|
A|-2----2----2----2----2----2----2~--------|
E|----------------------------02-----------|


Lyrics:


Algo grande está naciendo
En la decada de los 80
Ya se siente la atmosfera
Saturada de aburrimiento

Los hippies y los punk tuvieron la ocasión
De romper el estancamiento
En las garras de la comercialización
Murió toda la buena intención

Las juventudes cacarearon bastante
Y no convencen ni por solo un instante
Pidieron comprensión, amor y paz
Con frases hechas muchos años atras

Deja la inercia de los setentas
Abre los ojos, ponte de pie
Escucha el latido, sintoniza el sonido
Agudiza tus sentidos, date cuenta que estas vivo

Ya viene la fuerza, la voz de los 80

En Roma, Lima y en Santander
La gente de tu edad no sabe que hacer
Santiago, Asunción y también Buenos Aires
Bueno, las cosas no están que arden

Sangre latina necesita el mundo
Roja furiosa y adolescente
Sangre latina necesita el planeta
Adiós barreras, adiós setentas

En plena edad del plastico
Seremos fuerza, seremos cambio
No te conformes con mirar

En los 80 tu rol es estelar
Tienes la fuerza, eres actor principal
De las entrañas de nuestras ciudades
Surge la piel que vestirá al mundo

Escucha el murmullo, algo se siente venir
Los ultimos vientos de los setentas se mueren
Mira nuestra juventud
Que alegria mas triste falsa



+++++++++++++++++++++++++++++++++
| RaiLeff                       |
| Underground__Dora@Hotmail.Com |
+++++++++++++++++++++++++++++++++
Suggest correction
What's this?
You can suggest a correction to this tab. Community and Mods will review your correction and vote to approve or reject it.
comments
We did not receive enough feedback on this tab! Please rate:
print report bad tab
1 2 3 4 5
guest
You may want to rate the tab now too:
select rating
Please do not post tabs as comments. Select "correction" instead!