Oops, an error
Loading. Please wait.

Mami chords

version 1
version 1

Whole song

10 views 1 this week
no commentswrite comment
1 2 3 4 5
3 more votes to show rating
add to favorites
×
Save as Personal and add changes to this tab that will be seen only by you. Learn more ›
×
You can save this tab as Personal to edit and correct it or add notes. All changes will be seen only by you. Learn more »
launch autoscroll
font size
0
reset
transpose
0
reset
simplify chords
display chords
guitar tuner
edit
Autoscroll
slow
fast
+/-
esc
set tempo
stop
Strumming
There is no strumming pattern for this song yet. and get +5 IQ
Bonito tema que podria ser de fogata, aqui les va:

Intro:
                  Bm      
e-----------------------2-------------------------
B---2h3-2---0---------3---3---3-------------------
G---------2---------4-------4---------------------
D-----------------4-------------------------------
A-------------------------------------------------
E-------------------------------------------------

                  B7 
e-----------------------0-------------------------
B---2h3-2-0-----------3---3---3-------------------
G-----------2-------2-------2---------------------
D-----------------3-------------------------------
A-------------------------------------------------
E-------------------------------------------------

Bm         B7 
Mami, mi puente desde Dios
Bm                        B7 
fluye mi camino desde tus ojos
hacia donde el sol
Bm             B7 
cielo despejado 
Bm      B7        Em              Bm B7  Bm B7 
guia de esta increible reencarnacion

A veces pienso
que ya viajamos juntos tantas veces
mas con distintos nombres
Mami, pura y certera magia
Mami, el sueño que desea lo mejor

Bm       B7 
No, hay vida
Bm       B7 
No, hay muerte....

Mami, mi puente desde Dios
fluye mi camino desde tus ojos 
hacia donde el sol
cielo despejado
eres la guia de esta nada de mala reencarnacion

No, hay vida
No, hay muerte....


(Termina con el intro)


Uds se preguntan que es B7+
B7+:e-------
    B--2----
    G--2----
    D--3----
Eso es, ahora ponganle harto sentimiento a la cancion
pa que les salga wena, y un saludo a todos los valpinos
y celebren que somos 'Patrimonio de la Humanidad'

            
            
Suggest correction
Creating personal tab
Creating personal tab
You can edit any tab online and save it as your Personal.

You can edit, replace or remove any tab part or add personal notes – all changes will be seen only by you.

Personal tabs can be accessed anytime from any device, even offline.
Learn more »
Give kudos to tab author, rate the tab!
1 2 3 4 5
comments
print report bad tab
guest
Wanna post a correction for this tab? Suggest correction