Oops, an error
Loading. Please wait.

Mentalidad Televisiva bass

version 1
version 1

Whole song

Interactive

683 views 1 this week
no commentswrite comment
1 2 3 4 5
2 more votes to show rating
add to favorites
×
Save as Personal and add changes to this tab that will be seen only by you. Learn more ›
×
You can save this tab as Personal to edit and correct it or add notes. All changes will be seen only by you. Learn more »
launch autoscroll
font size
0
reset
guitar tuner
edit
Autoscroll
slow
fast
+/-
esc
set tempo
stop
Hola Amigos, aquí les mando mi primera transcripción de
bajo, que a mi parecer suena muy bien y a diferencia de otras
transcripciones esta tiene algunos riff que hace el bajo
de Jorge Gonzales, asi que aquí les va:

Versos:

  Sol                     Si
|-----------------------------4-----4-----4----4-|
|-----5-----5-----5-----5------------------------|
|-------------------------2-2---2-2---2-2---2-2--|
|-3-3---3-3---3-3---3-3--------------------------|

Excepto en algunas partes que el bajo hace el sig.
riff al cambiar a Si y volver a Sol:

|--------------|
|--------------|
|-5-5-5--3-2---|
|--------------|

Esto hace en esa parte que dice ...como llegó a mi ...
y las semejantes a esas:

|-----------------5-----5-----6-----7-|
|-----7-----7-------------------------|
|-------------3-3---3-3---4-4---5-5---|
|-5-5---5-5---------------------------|
Esto hace en donde dice ...a donde está el galán... y sus 
semejantes:

|-------------------------------------------9-----9-|
|-----7-----7-----10-----10-----9-----9-------------|
|---------------------------------------7-7---7-7---|
|-5-5---5-5---8-8----8-8----7-7---7-7---------------|

|------------------9-----9-|
|-----10-----9-------------|
|--------------7-7---7-7---|
|-8-8----7-7---------------|

|------------------7-----7-----7-----7-----7-----7-|
|-----10-----9-------------------------------------|
|--------------5-5---5-5---5-5---5-5---5-5---5-5---|
|-8-8----7-7---------------------------------------|

Coro:

|-------------------------------------------------|
|-------------------------------------------------|
|---------------------------5-5-5-5-5-5--3-3--2-2-|
|--3-3-3-3-3-3--0-0-0-0-0-0-----------------------|

esto hace cuando en el coro repite: ...mentalidad...:

|----------|
|----------|
|-5-5--3-2-|
|----------|

esto hace en la parte que dice ...buscate un macho...:

|-------------------------------9-7---|
|-------9-------7--------10---------9-|
|-----9-------7-------10-----7--------|
|--7-------5-------8------------------|

|-------------------------------7-9-7-|
|-------9-------7--------10-----------|
|-----9-------7-------10-----7--------|
|--7-------5-------8------------------|

|-------------------------------9-7---|
|-------9-------7--------10---------9-|
|-----9-------7-------10-----7--------|
|--7-------5-------8------------------|

|-------------------------------------------------------/
|-------9-------7------10-----10-----10-----11-------12-/
|-----9-------7-----------------------------------------/
|--7-------5-------8-8----8-8----8-8----9-9----10-10----/

|--------------------------------------------------------|
|--------12-------12-------12-------14-------14-------14-|
|--------------------------------------------------------|
|--10-10----10-10----10-10----12-12----12-12----12-12----|

Durante el solo de guitarra sube un tono y hace esto:

|------------------------------6-----6-----6-----6-|
|-----7-----7-----7-----7--------------------------|
|--------------------------4-4---4-4---4-4---4-4---| x 2
|-5-5---5-5---5-5---5-5----------------------------|

|----------------------------------------------------------|
|-----9-----9-------12-------12-------12-------13-------14-|
|----------------------------------------------------------|
|-7-7---7-7---10-10----10-10----10-10----11-11----12-12----|

|------------------------------6-----6-----6-----6-|
|-----7-----7-----7-----7--------------------------|
|--------------------------4-4---4-4---4-4---4-4---| x 2
|-5-5---5-5---5-5---5-5----------------------------|

|-------------------------------------------------11-----11-|
|-----9-----9-------12-------12-----11-----11---------------|
|---------------------------------------------9-9----9-9----|
|-7-7---7-7---10-10----10-10----9-9----9-9------------------|

|---------------------11-----11-|
|-------12-----11---------------|
|-----------------9-9----9-9----|
|-10-10----9-9------------------|

|---------------------9-----9-----9-----9-|
|-------12-----11-------------------------|
|-----------------7-7---7-7---7-7---7-7---|
|-10-10----9-9----------------------------|

Coro:

|-----------------------------------------------|
|-----------------------------------------------|
|----------------------------7-7-7-7-7-7--5-5-4-|
|--5-5-5-5-5-5--2-2-2-2-2-2---------------------|

ok eso es todo el bajo y espero que lo entiendan 
ademas no puede estar mas facil de entender.
Suggest correction
Creating personal tab
Creating personal tab
You can edit any tab online and save it as your Personal.

You can edit, replace or remove any tab part or add personal notes – all changes will be seen only by you.

Personal tabs can be accessed anytime from any device, even offline.
Learn more »
Give kudos to tab author, rate the tab!
1 2 3 4 5
comments
print report bad tab
guest
Wanna post a correction for this tab? Suggest correction