Oops, an error
Loading. Please wait.

San Miguel chords

version 1
version 1

Whole song

133 views 3 this week
no commentswrite comment
1 2 3 4 5
3 more votes to show rating
add to favorites
×
Save as Personal and add changes to this tab that will be seen only by you. Learn more ›
×
You can save this tab as Personal to edit and correct it or add notes. All changes will be seen only by you. Learn more »
launch autoscroll
font size
0
reset
transpose
0
reset
simplify chords
display chords
guitar tuner
edit
Autoscroll
slow
fast
+/-
esc
set tempo
stop
Strumming
There is no strumming pattern for this song yet. and get +5 IQ
Intro: B7 Am

E |-------
B |-------
G |-------
D |-------
A |-2-0---
E |-----0-


         A
E |------------------------------------------------------
B |------------------------------------------------------
G |------------------------------------------------------
D |---0---0-2--------0---0-2------------------------------
A |-2---2-----0----2---2----------0-2-0-2-0-2--2-0--2-0---
E |--------------------------0--------------------------0-

Em
Ves, como rueda la vida
Am         C
Ves, encontré la salida
Em                      B7    Am
Ves, en el fondo no ha pasado nada

         A
Si hay que ocultar el abismo y
perdornarse a sí mismo con
El espíritu del silencio


       B

G
No, yo no estoi dañado
A                  C
No, tanto no he cambiado
B C D A
Puedo volver a jugar
C B Em
por San Miguel

Puente 1:
Em C Em C MIm DO B
(Solo 1)

        A
B, A hice remal
No voy a culpar
Al código de injusticias
        A
Tú me viste salir
Te voy a cumplir
La vida que merecemos juntos

        B
No, yo no estoy dañado
No, tanto no he cambiado
Puedo volver a jugar
Por San Miguel

        C

Em C G B
San Miguel, San Miguel
Todavía es temprano para comenzar
San Miguel, San Miguel
Si tu corazón me quiere acompañar

Puente 2:
G A C
San Miguel, San Miguel


        A
B, A hice remal
No voy a culpar
Al código de injusticias

        B
No
(Solo 2)

        C
San Miguel, San Miguel
El dulce perfume del amanecer
San Miguel, San Miguel
Te juro que siempre te voy a querer

Puente 2:
G A C
San Miguel, San Miguel

Puente 1:
Em C Em C MIm DO MIm
(Solo 1, recortado)


Solo 1:
Se toca sobre el Puente 1
G |-11-11~9-11-11~9-12-12~11-12-12~11-14-14~11-11~9-|


Solo 2:
Se toca sobre B
E |----------------------
B |----------------------
G |----------------------
E |---12-11-10---12-11-10
B |-6----------6---------
G |----------------------

Luego los acordes Si-Do-Re-La--Do-Si-Mim,
pero tocando solo las cuerdas primas.
(partiendo, con la nota Si, desde el septimo espacio)

Luego
B |-5-5-8-7-5-5-8-7-|


Solo 3:
Se toca sobre C, durante el coro final de la canción.

E |---------------------------------------
B |-12-10---------------10-10/12-10----10-
G |-------12-11-9-11-12-------------12----
D |---------------------------------------
A |---------------------------------------
E |---------------------------------------


E -------------------------11-12-11-12-11----------|
B -12-13-12-13-12-13-12-13----------------13-12-10-|
G -------------------------------------------------|
D -------------------------------------------------|
A -------------------------------------------------|
E -------------------------------------------------|


El Solo 1 es una cita a la canción Sinceridad,
de Ricardo Cocciante.
El Solo 2 es una cita a la canción Como deseo ser tu amor,
de Los Galos.
El Solo 3 es una cita a la canción Melina,
de Camilo Sesto.

            
            
Suggest correction
Creating personal tab
Creating personal tab
You can edit any tab online and save it as your Personal.

You can edit, replace or remove any tab part or add personal notes – all changes will be seen only by you.

Personal tabs can be accessed anytime from any device, even offline.
Learn more »
Give kudos to tab author, rate the tab!
1 2 3 4 5
comments
print report bad tab
guest
Wanna post a correction for this tab? Suggest correction