Oops, an error
Loading. Please wait.

Maldita Veleta tab

32 views 1 this week
no commentswrite comment
1 2 3 4 5
3 more votes to show rating
add to favorites
×
Save as Personal and add changes to this tab that will be seen only by you. Learn more ›
×
You can save this tab as Personal to edit and correct it or add notes. All changes will be seen only by you. Learn more »
launch autoscroll
font size
0
reset
how to read this tab
guitar tuner
edit
Autoscroll
slow
fast
+/-
esc
set tempo
stop
hola me llamo enzo tengo 13 años mi msn es enzofg_2013@
por cualquier cosa.
espero que les guste!


 G                 Bm
POR TIIII NDA KARUSEVÉI,
        Am         D
CHE RESA`YJU ANDO DESNUTRIDO


E--------8s10-----8s10----------------------
B--10s12-------12-------10----10--------10--
G--------------------------12----12---12----


E--8s-10-10--------------------10s12-12------------------
B-----------12-12--10-10----------------12-12-10-10------
G------------------------12-------------------------12---


E---------------------10-------------
B------------------10----------------
G--11-12--11h12-11-------------------


 G                   Bm
POR TIIIIIII CHE BARBA PUKU,
          Am
CHE AKÂCHARA CHE PINTA VAI
        D
Y KA`ÚRE VIVO


 G
CADA VEZ QUE ME REÚNO CON LOS PERROS
 Bm
ME COMENTAN QUE TE VEN EN EL COLEGIO
       Am                            D
SIEMPRE ESTÁS CHAPÁNDOTE CON EL MÁS CHURRO
 G
Y DE NOCHE TE DIVIERTES EN LA DISCO
 Bm
OLVIDÁNDOTE DE MÍ Y QUE EXISTO
        Am                     D
MIENTRAS YO EN ALGÚN BAR TOMANDO DIGO


CORO

 G               Bm
MALDITA VELETA MALDITA COQUETA
 Am                 D
MALDITO LOS DÍAS EN QUE ME ENGAÑÓ,
 G               Bm
MALDITA LA TÍA MALDITA LA PRIMA
 Am                D
Y HASTA LA VECINA DE MI SE RIÓ.
 G                                 Bm
MALDIIIITAAAAA,repite 2da voz  MALDIIIIIIIITAAAAAA repite 2da voz
 Am                 D
ROMPISTE SIN PIEDAD MI CORAZÓN.


E--------8s10-----8s10----------------------
B--10s12-------12-------10----10--------10--
G--------------------------12----12---12----


E--8s-10-10--------------------10s12-12------------------
B-----------12-12--10-10----------------12-12-10-10------
G------------------------12-------------------------12---


E---------------------10-------------
B------------------10----------------
G--11-12--11h12-11-------------------


 G                   Bm
POR TIIIIIII CHE BARBA PUKU,
      Am
CHE AKÂCHARA CHE PINTA VAI
     D
Y KA`ÚRE VIVO

 G
CADA VEZ QUE ME REÚNO CON LOS PERROS
 Bm
ME COMENTAN QUE TE VEN EN EL COLEGIO
        Am                       D
SIEMPRE ESTÁS CHAPÁNDOTE CON EL MÁS CHURRO
 G
Y DE NOCHE TE DIVIERTES EN LA DISCO
 Bm
OLVIDÁNDOTE DE MÍ Y QUE EXISTO
        Am                      D
MIENTRAS YO EN ALGÚN BAR TOMANDO DIGO


CORO
 G               Bm
MALDITA VELETA MALDITA COQUETA
      Am                D
MALDITO LOS DÍAS EN QUE ME ENGAÑÓ,
 G              Bm
MALDITA LA TÍA MALDITA LA PRIMA
   Am                 D
Y HASTA LA VECINA DE MI SE RIÓ.
G                                 Bm
MALDIIIITAAAAA,repite 2da voz  MALDIIIIIIIITAAAAAA repite 2da voz
 Am                 D
ROMPISTE SIN PIEDAD MI CORAZÓN.
 G
MALDITA!

            
            
Suggest correction
Creating personal tab
Creating personal tab
You can edit any tab online and save it as your Personal.

You can edit, replace or remove any tab part or add personal notes – all changes will be seen only by you.

Personal tabs can be accessed anytime from any device, even offline.
Learn more »
Give kudos to tab author, rate the tab!
1 2 3 4 5
comments
print report bad tab
guest
Wanna post a correction for this tab? Suggest correction