Oops, an error
Loading. Please wait.

Acetona tab

version 1
version 1

Whole song

81 views 1 this week
no commentswrite comment
1 2 3 4 5
3 more votes to show rating
add to favorites
×
Save as Personal and add changes to this tab that will be seen only by you. Learn more ›
×
You can save this tab as Personal to edit and correct it or add notes. All changes will be seen only by you. Learn more »
launch autoscroll
font size
0
reset
how to read this tab
guitar tuner
edit
Autoscroll
slow
fast
+/-
esc
set tempo
stop
Guitarra I (Efecto Clean)
Primera y segunda estrofa: (Riff 1)

]---------------------------------------[
]---------------------------------------[
]---------------------------------------[
]-6-6-4---6-6-4-------6-6-4---6-0-4-5-6-[ X2
]-7-7-5-0-7-7-5-0-5-6-7-7-5-0-7-0-5-6-7-[
]---------------------------------------[
     'Me gusta verte distraida...'

En la parte que dice 'llenarte mas de mi sali...'
hay 2 guitarras: (Riff 2)

Guitarra I Clean

]-------------------------------------------[
]-------------------------------0-----------[
]-----0---------0---------0-------0-------0-[
]---2---2-----4---4-----5---5-------5---5---[
]-3-------3-5-------5-7-------7-------7-----[
]-------------------------------------------[

]---------------------[
]---------------------[
]-----0---------0-----[
]---2---2-----4---4---[
]-3-------3-5-------5-[
]---------------------[

Y la guitarra II...
En Distortion
]---------------------[
]---------------------[
]-5-------7-------9---[
]-5-------7-------9---[
]-3-------5-------7---[
]---------------------[

Antes del coro hay un espacio donde se hacen varios cortes
las guitarras van asi:

Guitarras I y II (clean) (Riff 6)

            ***
]----------|---------------[
]-9-9--7---|---9-7-9-7-9-9-[
]-9-9--7---|---9-7-9-7-9-9-[
]-9-9--7---|---9-7-9-7-9-9-[
]-7-7--5---|---7-5-7-5-7-7-[
]----------|---------------[

Para caer al primer coro se toca toda la frase anterior completa.
Pero para el segundo se omite la primera parte y se comienza desde
donde indican los ***

Coro: (Riff 3)

Los acordes son Em, C, D y B.

 Em:   C:   D:    B:
]-7--|-8--|-10--|-7--[
]-8--|-8--|-10--|-7--[
]-9--|-9--|-11--|-8--[
]-9--|-10-|-12--|-9--[
]-7--|-10-|-12--|-9--[
]-7--|-8--|-10--|-7--[

No te puedo describir la manera exacta en la que se tocan
los acordes, para saberlo tendras que escuchar el tema.

Luego del coro hay una frase que hace una guitarra
distorcionada con el Riff 1 de fondo:

Frase 1 (Guitarra 1: Distortion)

]---------------------------------------------[
]---------7-5h7p5---5-----------7-5h7p5---5t7-[
]-------7---------7---7-------7---------7-----[
]---6-9-------------------6-9-----------------[
]-7---------------------7---------------------[
]---------------------------------------------[

La 't' que aparece entre los trastes 5 y 7 de la 2da cuerda
significa 'tremolo', y consiste en hacer repetidos hammer y
pull off entre dichos trastes.

Tercera estrofa (Riff 4)

]-----------------------------------------------------[
]-----------------------------------------------------[
]-9-x-x-7-x-9-x-9-x-x-7-7-x-x-9-x-x-7-7-x-9-----7-8-9-[
]-9-x-x-7-x-9-x-9-x-x-7-7-x-x-9-x-x-7-7-x-9--9--7-8-9-[ X2
]-7-x-x-5-x-7-x-7-x-x-5-5-x-x-7-x-x-5-5-x-7--9--5-6-7-[
]--------------------------------------------7--------[

Esta es como un Interludio (asi lo veo) y dice
'Y para que mandarte rosas, si no te gustan a ti...'

Aqui te va la guitarra: (Riff 5)

]-7--x-7--x-9--x-x-9--9--------------/12-12-12-12[
]-8--x-8--x-10-x-x-10-10--9-x-x-9-9--/9--9--9--9-[
]-7--x-7--x-9--x-x-9--9---9-x-x-9-9--/9--9--9--9-[
]-9--x-9--x-11-x-x-11-11--9-x-x-9-9--/9--9--9--9-[
]-10-x-10-x-12-x-x-12-12--7-x-x-7-7--------------[
]------------------------------------------------[

]-7--x-7--x-6-6-6---------------------------[
]-8--x-8--x-7-7-7--9-x-x-9-9-x-9-9-x-x-9-9--[
]-7--x-7--x-6-6-6--9-x-x-9-9-x-9-9-x-x-9-9--[ X2
]-9--x-9--x-8-8-8--9-x-x-9-9-x-9-9-x-x-9-9--[
]-10-x-10-x-9-9-9--7-x-x-7-7-x-7-7-x-x-7-7--[
]-------------------------------------------[

El orden es el siguiente:

*Riff 1 (1era estrofa)
*Riff 2 (  '    '    )
*Riff 1 (2da estrofa )
*Riff 2 (  '    '    )
*Riff 6 (Pre - coro)
*Riff 3 (Coro)
*Frase 1
*Riff 4 (3era estrofa)
*Riff 2 (  '    '    )
*Riff 6 (Pre coro)
*Riff 3 (Coro)
*Riff 5 (Interludio)
*Riff 3 X4 (Trompetas)
*Frase 1 (Outro)

Si este orden te confunde, solo escucha el tema...
ALguna sugerencia o correccion, escribame a mi correo...
Suggest correction
Creating personal tab
Creating personal tab
You can edit any tab online and save it as your Personal.

You can edit, replace or remove any tab part or add personal notes – all changes will be seen only by you.

Personal tabs can be accessed anytime from any device, even offline.
Learn more »
Give kudos to tab author, rate the tab!
1 2 3 4 5
comments
print report bad tab
guest
Wanna post a correction for this tab? Suggest correction