Oops, an error
Loading. Please wait.

My Comanding Wife bass

version 1
version 1

Whole song

117 views 1 this week
no commentswrite comment
1 2 3 4 5
3 more votes to show rating
add to favorites
×
Save as Personal and add changes to this tab that will be seen only by you. Learn more ›
×
You can save this tab as Personal to edit and correct it or add notes. All changes will be seen only by you. Learn more »
launch autoscroll
font size
0
reset
guitar tuner
edit
Autoscroll
slow
fast
+/-
esc
set tempo
stop
La letra esta escrita arriba y abajo esta la tablatura del bajo.

Comienza con guitarra ritmica y voz 2 vueltas LA - Fam# - RE -MI

Entra el bajo.

Sho, Sho, sho, sho,sho, sho monterrico,sho, sho, sho ohahhh.

Parte 1 introduccion.

    LA        Fam#       RE       MI

g---------*---------*---------*---------
d---------*---------*---------*---------
a---------*---------*-5-5-5-5-*-7-7-7-7-
e-5-5-5-5-*-2-2-2-2-*---------*---------(4 veces)

Parte 2 estrofa.

En el tanque de guerra me pase a buscar
la teniente la desoleray
es correcto; mi esposa y en particular
fuerza de defenza de Panama

Oh oh comanding wife
no me deja de vigilar
mi casa es una arcenal
she want to destroy my life

LA            Fam#       RE         MI

g---------*---------*---------*---------
d---------*---------*-----7-5-*-----9---
a-----7-5-*-----4-2-*-5-5-----*-7-7---7-
e-5-5-----*-2-2-----*---------*---------(4 veces)

Coro:

Oh my comading wife
She want to destroy my life(4 veces)

 LA          Fam#       RE        MI

g---------*---------*---------*---------
d---------*---------*---------*---------
a---------*---------*-5-5-5-5-*-7-7-7-7-
e-5-5-5-5-*-2-2-2-2-*---------*---------(4 veces)


La metralla coreana ella suele llevar
por si halla alguna novedad
de misiles y misiles no me para de hablar
ella quiere que le compre una bomba nuclear

Oh oh oh comanding wife
no me deja ni respirar
me dice ni un paso atras
(yes wes com lisent to the hula)


LA           Fam#       RE         MI

g---------*---------*---------*---------
d---------*---------*-----7-5-*-----9---
a-----7-5-*-----4-2-*-5-5-----*-7-7---7-
e-5-5-----*-2-2-----*---------*---------(4 veces)

Parada solo de bateria y voz.

Eh oh atombeles
lo que haces conmigo majuma pulis
she had una placa y controla a talo
pero yo la someto en dajas con el ohh

(el parentesis es jalon de cuerda de LA hasta MI al aire)

       LA           Fam#       RE         MI

g-----------------*---------*---------*------
d-----------------*---------*---------*-------
a-----------------*---------*---------*-------
e-5-(5-4-3-2-1-0)-*---------*---------*-------


A todas las mujeres que les gusta la pistola
ella quiere que le dispare en un lugar especial
a toda esa yale que son bien mandonas
a la hora de la cama las suavizo de verdad

Dedicada a la mujer que le gusta la pistola
porque ella quiere que le dispare en un lugar adicional
a toda esa yale que yo tengo en Panama
yoh, voy pa ya  yoh, voy pa ya,


  LA         Fam#       RE         MI

g---------*---------*---------*---------
d---------*---------*-----7-5-*-----9---
a-----7-5-*-----4-2-*-5-5-----*-7-7---7-
e-5-5-----*-2-2-----*---------*---------(4 veces)

Solo de teclados.


   LA         Fam#       RE         MI

g--------*--------*-7-7--7--*-9-9--9---
d-7-7--7-*-4-4--4-*-----7---*-----9----
a-----7--*-----4--*---------*----------
e--------*--------*---------*----------


Oh my comading wife
She want to destroy my life(4 veces)

 LA          Fam#       RE        MI

g---------*---------*---------*---------
d---------*---------*---------*---------
a---------*---------*-5-5-5-5-*-7-7-7-7-
e-5-5-5-5-*-2-2-2-2-*---------*---------(4 veces)


Back to back belly to belly
Ay bien belicosas son algunas mujeres
Back to back belly to belly
Y esas me tocan a mi caballero!
Back to back belly to belly
Un cuartel militar en la casa ella quiere
Back to back belly to belly
Pa no dejarme salir

     RE        LA       MI       LA

g----------*---------*---------*-----------
d------7-5-*---------*-----9-7-*-----------
a---5-5----*----7-5--*-7-7-----*-----------
e----------*-5-5-----*---------*-5-5-5-7-5-(4 veces)

Back to back belly to belly
Ay bien belicosas son algunas mujeres
Back to back belly to belly
Y esas me tocan a mi caballero!
Back to back belly to belly
Un cuartel militar en la casa ella quiere
Back to back belly to belly
Pa no dejarme salir

     RE        LA       MI       LA

g----------*---------*---------*-----------
d----------*---------*---------*-----------
a---5------*---------*---7-----*----12-------
e----------*---5-----*---------*-----------(4 veces)

Al final mensiona algo en ingles y el bajo es punto segun el compas
se alarga o disminuye es cuestion de seguir a la bateria


     RE        LA       MI       LA

g----------*---------*---------*-----------
d----------*---------*---------*-----------
a-5--5-5-5-*---------*-5-5-5-5-*-----------
e----------*-5-5-5-5-*---------*-5-5-5-5---(3 veces)

Final

RE        LA       MI       LA

g----------*---------*---------*-----------
d----------*---------*---------*-----------
a-5--5-5-5-*---------*-5-5-5-5-*-----------
e----------*-5-5-5-5-*---------*-----5-----

Espero no les haya confundido con tanta transcripcion yo
lo toco con mi grupo y suena muy bien se los aseguro es cuestion
de ordenarse , e tratado de especificarlo al maximo esta cancion, dedicado
a los Stereofonicos que es una buena banda de Covers que me pidio que
saque este tema  y sea esta transcripcion para todos los que quieran
tocar esto y por cuestiones de aprendisasje aun no pueden sacar esta
cancion o no saben como, todo esta sacada a oido disfrutenla.

Cristian Blues..

            
            
Suggest correction
Creating personal tab
Creating personal tab
You can edit any tab online and save it as your Personal.

You can edit, replace or remove any tab part or add personal notes – all changes will be seen only by you.

Personal tabs can be accessed anytime from any device, even offline.
Learn more »
Give kudos to tab author, rate the tab!
1 2 3 4 5
comments
print report bad tab
guest
Wanna post a correction for this tab? Suggest correction