Oops, an error
Loading. Please wait.

El Che Y Los Rolling Stones tab

version 3
version 3

Whole song

Interactive

277 views 12 this week
no commentswrite comment
1 2 3 4 5
3 more votes to show rating
add to favorites
×
Save as Personal and add changes to this tab that will be seen only by you. Learn more ›
×
You can save this tab as Personal to edit and correct it or add notes. All changes will be seen only by you. Learn more »
launch autoscroll
font size
0
reset
how to read this tab
guitar tuner
edit
Autoscroll
slow
fast
+/-
esc
set tempo
stop
que tal esta es casi la version exacta de
el che y lOs rolling stone de los rancheros.
yo encontre una me parecio genial pero le
 faltaban una pulida ...comenten y critiquen si gustan.

INTRO:

A                            Bm
e------------------------------------------------------------
b--3s5--5-5-5-5-5-5-3~.-2~.----------------------------------
g--------------------------4-4~.--4s7--7-7----6.-4.-2-2~---.-
d------------------------------------------------------------
a------------------------------------------------------------
E------------------------------------------------------------

  D                  E         A Asus2 Asus 4 A Asus2 A
e-----------------------------------
b-----------------------------------
g--2s7--7-7--6~.-4~.-2-4s6-2------.-
d---------------------------2-------
a-----------------------------------
E-----------------------------------

EN EL VERSO VAN LOS MISMOS ACORDES SOBRE LOS TABS.

Solo:

  A                            Bm
e------------------------------------------------------------
b--3s5--5-5-5-5-5-5-3~.-2~.----------------------------------
g--------------------------4-4~.--4s7--7-7----6.-4.-2-2~---.-
d------------------------------------------------------------
a------------------------------------------------------------
E------------------------------------------------------------

  D                  E         A
e--------------------------------------------------------
b--------------------------------------------------------
g--2s7--7-7--6~.-4~.-2-4s6-2~-----4b5-4p2p0-2-4b5r4-2-
d----------------------------2~--------------------------
a--------------------------------------------------------
E--------------------------------------------------------
          A                                    Bm
e--------7s9-9-9-9-9-7------------------------7s9-9-9-9-9-7-
b------8---------------10s12-12-12-12-12-10-7---------------
g--7-9------------------------------------------------------
d-----------------------------------------------------------
a-----------------------------------------------------------
E-----------------------------------------------------------

  D                  E         A Asus2 Asus 4 A Asus2 A
e-----------------------------------------------------------
b--10s12-12-12-12-12-10-7-5s7-7-7-7-7-5---------------------
g---------------------------------------4s6-6-6-6-6-4~.-2~.-
d-----------------------------------------------------------
a-----------------------------------------------------------
E-----------------------------------------------------------

------------------------
------------------------
--4b5-4p2p0-2-4b5r4-2~.-
------------------------
------------------------
------------------------


Outro

A                            Bm
e------------------------------------------------------------
b--3s5--5-5-5-5-5-5-3~.-2~.----------------------------------
g--------------------------4-4~.--4s7--7-7----6.-4.-2-2~---.-
d------------------------------------------------------------
a------------------------------------------------------------
E------------------------------------------------------------

  D                  E         A Asus2 Asus 4 A Asus2 A
e--------------------------------------2---3---5---7h9-9~-9~-
b-----------------------------------2s3-3s5-5s7-7s9----9~-9~-
g-2s7--7-7-7-7-7-7-7-6~.-4~.-2-2~.--------------------------
d-----------------------------------------------------------
a------------------------------------------------------------
E------------------------------------------------------------

  A                            Bm
e------------------------------------------------------------
b--3s5--5-5-5-5-5-5-3~.-2~.----------------------------------
g--------------------------4-4~.--4s7--7-7----6.-4.-2-2~---.-
d------------------------------------------------------------
a------------------------------------------------------------
E------------------------------------------------------------

  D             E      A
       Y me aleje  de ti
---------------------------
---------------------------
--2s7--7-6--4~.----4~.-----
----------------7~.----7~.-
---------------------------
---------------------------


dedicada para mis amias q tanto aman los 80 karen y martha xD

            
            
Suggest correction
Creating personal tab
Creating personal tab
You can edit any tab online and save it as your Personal.

You can edit, replace or remove any tab part or add personal notes – all changes will be seen only by you.

Personal tabs can be accessed anytime from any device, even offline.
Learn more »
Give kudos to tab author, rate the tab!
1 2 3 4 5
comments
print report bad tab
guest
Wanna post a correction for this tab? Suggest correction