Oops, an error
Loading. Please wait.

Lo Que Doy tab

44 views 1 this week
1 commentread comment
1 2 3 4 5
3 more votes to show rating
add to favorites
×
Save as Personal and add changes to this tab that will be seen only by you. Learn more ›
×
You can save this tab as Personal to edit and correct it or add notes. All changes will be seen only by you. Learn more »
launch autoscroll
font size
0
reset
how to read this tab
guitar tuner
edit
Autoscroll
slow
fast
+/-
esc
set tempo
stop
Intro de este temazo de juanse...

 REm                 LAm            laº
E-----10-12-13-12---------5-7-8-7--------5-7-8-10-8-7--------------------
B--10-------------12----5---------7----5--------------10-------
G-----------------------------------------------------
D-----------------------------------------------------
A-----------------------------------------------------
E-----------------------------------------------------

Despues del intro hace esto

E--------------------------------------
B---------------8--8--8-------------------
G---------------7--7--7-------------------
D---------------6--6--6-------------------
A----3---3------7--7--7---------------------
E--5---5----5------------------------------

LAm           MIm          FA
Siento que te quiero de verdad
LAm        MIm              FA
veo, esconderlo no va más
LAm           MIm          FA
quiero que nos vean caminar
LAm           MIm          FA
sin tener que simular
LAm           MIm          FA
lo que doy y lo que dás


El fuego se cosume en soledad
besos que nos vea más allá
me debora, me debora la anciedad
me despierto y ya no estas
y al final siempre es lo mismo


REm
Y cuando estás con el
LAm
y yo me quedo aquí
Laº
las hora nunca pasan para mi
REm
y basta de mentir
LAm
si te vas con el
LAmº
ya no pienses mas en mi


Siento que te quiero de verdad
veo, esconderlo no va mas
quiero que nos vean caminar
sin tener que simular
lo que doy y lo que dás

Y cuando estás con el
y yo me quedo aquí
las hora nunca pasan para mi
y basta de mentir
si te vas con el
ya no pienses mas en mi.


Ojala que les gusten es muy facil de tocar 
cualquier duda escriban a sapitobustos2003@
Aguante los Ratones viejaaaaaaaaaaaaaaaaaaaa...

            
            
Suggest correction
Creating personal tab
Creating personal tab
You can edit any tab online and save it as your Personal.

You can edit, replace or remove any tab part or add personal notes – all changes will be seen only by you.

Personal tabs can be accessed anytime from any device, even offline.
Learn more »
Give kudos to tab author, rate the tab!
1 2 3 4 5
comments
print report bad tab
1 comment total.
0 reply
adrianmazzei 10 Aug 05, 2017 09:55 PM

Muchas gracias! Esta perfecta la tablatura. Abrazo

guest
Wanna post a correction for this tab? Suggest correction