Oops, an error
Loading. Please wait.

La Risa bass

17 views 1 this week
no commentswrite comment
1 2 3 4 5
3 more votes to show rating
add to favorites
×
Save as Personal and add changes to this tab that will be seen only by you. Learn more ›
×
You can save this tab as Personal to edit and correct it or add notes. All changes will be seen only by you. Learn more »
launch autoscroll
font size
0
reset
guitar tuner
edit
Autoscroll
slow
fast
+/-
esc
set tempo
stop
muy buenas he estado mirando y he visto
Que no hay ninguna tablatura de bajo
De esta magnifica canción y espero que os guste
Sacada por Chema (TuMama Rock)

PRINCIPIO
G|------------------------------------|
D|-----3-4-3--------------------------|
A|-1-4-------4-----1-2-----1-2--------|
E|-------------2-2-----2-2------------|

G|------------------------------------------------|
D|-----3-4-3-----4-4-4-4-------3-4-3--------------|
A|-1-4-------4-----------4-1-4------4----4-4-4-4--|
E|-------------2----------------------2-4--------4|


Se cuela se vende con que final


G|------------------------------------|
D|-----2-3------2-3-------------------|
A|-1-1------1-1----------1-2-----1-2--|
E|-------------------2-2-----2-2------|


Menudo rey midas

G|------------------------------------|
D|-----2-3------2-3--------4-3-1------|
A|-1-1------1-1--------1-4------4-----|
E|-------------------2----------------|


Como lagartija por la pared
G|------------------------------------|
D|-----2-3------2-3-------------------|
A|-1-1------1-1----------1-2-----1-2--|
E|-------------------2-2-----2-2------|

G|-----------------|
D|-----------------|
A|---------4-1-----|
E|-1/4-1-2---------|

La causa perdida el negocio bien
G|------------------------------------|
D|-----2-3------2-3-------------------|
A|-1-1------1-1----------1-2-----1-2--|
E|-------------------2-2-----2-2------|


Mañana otro dia

G|------------------------------------|
D|-----2-3------2-3--------4-3-1------|
A|-1-1------1-1--------1-4------4-----|
E|-------------------2----------------|

Espejito, espejito ¿quién da la vez?
G|------------------------------------|
D|-----2-3------2-3-------------------|
A|-1-1------1-1----------1-2-----1-2--|
E|-------------------2-2-----2-2------|

G|-----------------|
D|-----------------|
A|---------444444--|
E|-4444444-------4-|


ESTRIBILLO

Sin mi medio gramo hoy no me dará la risa

G|------------------------------------|
D|------------------------------------|
A|-1111111----------44444444----------|
E|---------22222222----------44444444-|


Y además no me molestes si tú no vas
G|------------------------------------|
D|------------------------------------|
A|-1111111----------44444444----------|
E|---------22222222----------44444444-|

Sube hasta la chepa y quien gana y quien
G|------------------|
D|------------------|
A|-11111111---------|
E|---------22222222-|

Barre las esquinas solo por placer
G|------------------|
D|------------------|
A|-44444444---------|
E|---------44444444-|

Sube hasta la chepa y quien gana y quien
G|------------------|
D|------------------|
A|-11111111---------|
E|---------22222222-|

Barre las costumbres solo por placer
G|------------------|
D|------------------|
A|-44444444---------|
E|---------44444444-|

PUNTEO
G|------------------------------------|
D|-----2-3------2-3-------------------|
A|-1-1------1-1----------1-2-----1-2--|
E|-------------------2-2-----2-2------|


G|------------------------------------|
D|-----2-3------2-3--------4-3-1------|
A|-1-1------1-1--------1-4------4-----|
E|-------------------2----------------|

G|------------------------------------|
D|-----2-3------2-3-------------------|
A|-1-1------1-1----------1-2-----1-2--|
E|-------------------2-2-----2-2------|

G|-----------------|
D|-----------------|
A|---------4-1-----|
E|-1/4-1-2---------|

Si engancha se siente con marcha atrás

G|------------------------------------|
D|-----2-3------2-3-------------------|
A|-1-1------1-1----------1-2-----1-2--|
E|-------------------2-2-----2-2------|

Bastante jodida
G|------------------------------------|
D|-----2-3------2-3--------4-3-1------|
A|-1-1------1-1--------1-4------4-----|
E|-------------------2----------------|

Adúltera da un punto..., ya veréis.
g|------------------------------------|
D|-----2-3------2-3-------------------|
A|-1-1------1-1----------1-2-----1-2--|
E|-------------------2-2-----2-2------|

G|-----------------|
D|-----------------|
A|---------4-1-----|
E|-1/4-1-2---------|

Ni la mercromina ni todo a 100
G|------------------------------------|
D|-----2-3------2-3-------------------|
A|-1-1------1-1----------1-2-----1-2--|
E|-------------------2-2-----2-2------|

Ocultan heridas
G|------------------------------------|
D|-----2-3------2-3--------4-3-1------|
A|-1-1------1-1--------1-4------4-----|
E|-------------------2----------------|

Agua, tierra, fuego, aire de papel.
G|------------------------------------|
D|-----2-3------2-3-------------------|
A|-1-1------1-1----------1-2-----1-2--|
E|-------------------2-2-----2-2------|

G|-----------------|
D|-----------------|
A|---------4444444-|
E|-4444444--------4|

ESTRIBILLO


TROZO diferente

G|-----------------|
D|-----0-----------|
A|-1-3-------------|
E|-----------------|


G|------3-1--------|
D|----0-----3------|
A|-1-3-------------|
E|-----------------| x4

G|-----------------|
D|-----0-----------|
A|-1-3-------------|
E|-----------------| x7

ESTRIBILLO

FINAL

G|-----------------|
D|-----0-----------|
A|-1-3-------------|
E|-----------------|x4


Sugerencias: ruso_tmr@
gracias a Chema

            
            
Suggest correction
Creating personal tab
Creating personal tab
You can edit any tab online and save it as your Personal.

You can edit, replace or remove any tab part or add personal notes – all changes will be seen only by you.

Personal tabs can be accessed anytime from any device, even offline.
Learn more »
Give kudos to tab author, rate the tab!
1 2 3 4 5
comments
print report bad tab
guest
Wanna post a correction for this tab? Suggest correction