Oops, an error
Loading. Please wait.

Malas Intensiones chords

22 views 1 this week
no commentswrite comment
1 2 3 4 5
3 more votes to show rating
add to favorites
×
Save as Personal and add changes to this tab that will be seen only by you. Learn more ›
×
You can save this tab as Personal to edit and correct it or add notes. All changes will be seen only by you. Learn more »
launch autoscroll
font size
0
reset
transpose
0
reset
display chords
guitar tuner
edit
Autoscroll
slow
fast
+/-
esc
set tempo
stop
Strumming
There is no strumming pattern for this song yet. and get +5 IQ
(RIFF 1)                          E
E|-4-4--2--5--4-4--2--5--4-4--2-5-4----|
B|-------------------------------------|
G|-------------------------------------|
A|-------------------------------------|

Parte I
                F#m
(Que sere muy feliz
               G#
que serás para mi
              C#m
lo dices pero mientes

se bien lo que pretendes
       F#m
al tratarme así
   B              E
no me amas de verdad
         (R2) F#m      B
ya se la realidad (Riff3)
B                E
nos quieres separar (Riff4))

(se repite la PARTE I)


PARTE II
       C#m          G#m         C#m      G#m
(Riff5)Ya me han contado (Riff6)de tu pasado que,
E             G#m     A                B
no eres buena lo sé, pero ella no es cruel
            E     B
no es como tu(Riff7)
B                      E
lo dices mas no es cierto (Riff4))


PARTE I

PARETE II (solo hasta la parte, "no es como tu")

PARTE II
E        (R2)  F#m      B
Ya se la realidad (Riff3)
B                E
nos quieres separar(Riff4)
E         (R2) F#m     B
Ya se la realidad(Riff3)
B                E       E
nos quieres separar(Riff1)


(RIFF 2)
           F#m
   rea  li dad
E|--7---6---5----------------|
B|----------7----------------|
G|---------------------------|
D|---------------------------|
A|---------------------------|
E|---------------------------|

(RIFF 3)
               B
E|---------------------------|
B|---------------------------|
G|---------------------------|
D|---------------------------|
A|-----0--2h4--2-------------|
E|-2-2-----------------------|

RIFF4
            E
E|--4-4-2-5-4----------------|
B|---------------------------|
G|---------------------------|
D|---------------------------|
A|---------------------------|
E|---------------------------|

(RIFF 5)
           C#m
E|---------------------------|
B|-5-4-----------------------|
G|-----6-4-6-----------------|
D|---------------------------|
A|---------------------------|
E|---------------------------|

(RIFF 6)
        C#m
E|---------------------------|
B|---------------------------|
G|---------------------------|
D|---------------------------|
A|---------------------------|
E|--4-7-4--------------------|

(RIFF 7)
            B
E|----------2----------------|
B|-2-0------4----------------|
G|-----1-2--4----------------|
D|----------4----------------|
A|----------2----------------|
E|----------2----------------|

Esta es una de las mejores canciones de los Reno,
pueden tocar solo los acordes y se escucha bien,
si son 2 guitarras, los acordes y los requintos es mejor
Si escuchan la canción podrán notar que esta muy facil apesar que
son varios acordes, escuchen la canción para que vean el ritmo.
envien sus comentarios, o si encuentran algun error.
nos vemos.

            
            
Suggest correction
Creating personal tab
Creating personal tab
You can edit any tab online and save it as your Personal.

You can edit, replace or remove any tab part or add personal notes – all changes will be seen only by you.

Personal tabs can be accessed anytime from any device, even offline.
Learn more »
Give kudos to tab author, rate the tab!
1 2 3 4 5
comments
print report bad tab
guest
Wanna post a correction for this tab? Suggest correction