Oops, an error
Loading. Please wait.

Reflexiona chords

70 views 1 this week
no commentswrite comment
1 2 3 4 5
3 more votes to show rating
add to favorites
×
Save as Personal and add changes to this tab that will be seen only by you. Learn more ›
×
You can save this tab as Personal to edit and correct it or add notes. All changes will be seen only by you. Learn more »
launch autoscroll
font size
0
reset
transpose
0
reset
simplify chords
display chords
guitar tuner
edit
Autoscroll
slow
fast
+/-
esc
set tempo
stop
Strumming
There is no strumming pattern for this song yet. and get +5 IQ
Armonizada en A

Intro

E|---------------4s5-4-2-2------------------4s5-4-2-2---|
B|-4s5----4s5-----------------4s5----4s5----------------|
G|-----2------2-------------------2------2--------------|
D|------------------------------------------------------|
A|------------------------------------------------------|
E|------------------------------------------------------|

(Riff 2)
         A
D|---------------------|
A|-------0-------------|
E|-0-2-4---------------|


A                      E
Dices que ya todo termino
                           A
dices que mi amor ya te cansó
D                    E             A            C#m
si es que has encontrado quien te quiera mas que yo
Bm            E          A   (Riff 2)
si tu me lo pides ya me voy

(Parte II)
A                          E
Dices que lo nuestro se acabó
                         A
y que no te pida explicación
D                    E             A            C#m
si es que has encontrado quien te quiera mas que yo
Bm            E          A   A7
si tu me lo pides ya me voy.

(Parte III)
D              A
Te pido reflexiones
     B7                     E     (Riff 3)
te pido que te pongas a pensar
A                         E
no estaré a la hora del adios
                           A    A7
no podré ver juntos a los dos
D                    E         A             C#m
no olvides que te quiero no olvides quien fui yo
Bm            E          A
si tu me lo pides ya me voy.

(Intermedio)
   A          E          A          C#m        Bm         E           A
E|-5-------5--4-------4--5-------5--4-------4--2-------2--0-------0---0--|
B|-------5----------5----------5----------5----------3----------0-----2--|
G|-----7----------4----------6----------6----------4----------1-------2--|
D|---7----------6----------7----------6----------4----------2---------2--|
A|--------------------------------------------------------------------0--|
E|--------------------------------------------------------------------0--|

se repite (Parte 2, Parte 3)
Termina con el mismo requinto del intermedio)


(Riff3)
           A
D|-2-0-------------------|
A|-----4-2-0-------------|
E|-----------------------|


Esta canción es de las mejores de los Reno,
existe otra version que está en La bemol, para tocarla en Ab bajen
1/2 tono a cada acorde y a la tablatura bajen un traste.
espero que no tengan problemas con la transcripción,
manden sus comentarios o sus dudas. nos vemos

            
            
Suggest correction
Creating personal tab
Creating personal tab
You can edit any tab online and save it as your Personal.

You can edit, replace or remove any tab part or add personal notes – all changes will be seen only by you.

Personal tabs can be accessed anytime from any device, even offline.
Learn more »
Give kudos to tab author, rate the tab!
1 2 3 4 5
comments
print report bad tab
guest
Wanna post a correction for this tab? Suggest correction