Oops, an error
Loading. Please wait.

Tiempo De Llorar chords

44 views 1 this week
no commentswrite comment
1 2 3 4 5
3 more votes to show rating
add to favorites
×
Save as Personal and add changes to this tab that will be seen only by you. Learn more ›
×
You can save this tab as Personal to edit and correct it or add notes. All changes will be seen only by you. Learn more »
launch autoscroll
font size
0
reset
transpose
0
reset
simplify chords
display chords
guitar tuner
edit
Autoscroll
slow
fast
+/-
esc
set tempo
stop
Strumming
There is no strumming pattern for this song yet. and get +5 IQ
Armonizada en G

Coro
          G                        D7
(Hoy es tiempo de llorar, vas a dejarme
                               G
yo se bien que es inutil suplicar
                         G7      C
pero al ver que ya no puedo detenerte
      G               D7         G   C-G
me refugio en este tiempo de llorar     )

G                           D7
Me enamore de ti  como un tonto
                                   G
y mi pensamiento siempre estuvo en ti
                  G7                 C
te entregue mi corazon,  ahora lo rompes
         G            D7        G   C-G
porque creo que te aburriste de mi


(Coro)
(SOLO)
G                                 D7
Me dijiste que tu amor lo tiene otro
                                 G
y mi amor lo cambias por otro mejor
                    G7              C
si a su lado eres feliz ya puedes irte
      G          D7             G   C-G
con pesar mi corazon te dice adios

(Coro)
      G               D7       C         G
me refugio en este tiempo de lloraaaaaaaaar


   G              G7       C
E|----------------1-0----------------------------
B|---0-3-2--3-2-3------3-3-1---------------------
G|-0---------------------------------------------
D|-----------------------------------------------
A|-----------------------------------------------
E|-----------------------------------------------

       G      D7         G     C   G
E|-----------------------------0---1--------------
B|-----0---0-1-0---------------1---0--------------
G|-0-2---2-------2---0---0-----0---0--------------
D|---------------------4-------2---0--------------
A|-----------------------------3---2--------------
E|---------------------------------3--------------

Este es el intermedio , en la version original estas notas
son con el organo, pero tambien se oye bien con la guitarra.
a ver si les gusta y manden sus comentarios. nos vemos

            
            
Suggest correction
Creating personal tab
Creating personal tab
You can edit any tab online and save it as your Personal.

You can edit, replace or remove any tab part or add personal notes – all changes will be seen only by you.

Personal tabs can be accessed anytime from any device, even offline.
Learn more »
Give kudos to tab author, rate the tab!
1 2 3 4 5
comments
print report bad tab
guest
Wanna post a correction for this tab? Suggest correction