Oops, an error
Loading. Please wait.

Ninguna chords

232 views 6 this week
no commentswrite comment
1 2 3 4 5
3 more votes to show rating
add to favorites
×
Save as Personal and add changes to this tab that will be seen only by you. Learn more ›
×
You can save this tab as Personal to edit and correct it or add notes. All changes will be seen only by you. Learn more »
launch autoscroll
font size
0
reset
transpose
0
reset
display chords
guitar tuner
edit
Autoscroll
slow
fast
+/-
esc
set tempo
stop
Author
Difficulty
About this tab version
What a surprise ,no one has chords for this incredible band, im going to tab more of them, i hope you like it, check my videotutorial and demo cover to know how the song has to sound,NOTE, at the ending of the song the rythm continues but without chords. Was this info helpful? Yes No
Strumming
There is no strumming pattern for this song yet. and get +5 IQ
Rola Sacada Por Edgar chez 24/03/2017
Demo Cover: https://www.youtube.com/watch?v=rVaPIDvZqt8
Tutorial En Español: https://youtu.be/g3hyXDI25M8

Standard Tuning EADGBe 
No Capo Needed

[Intro]                                                                  
                                                                  C                  E
e|--0-----0--------0--|---1-----1-------0--|-1-----1--------1--|-----------------|---0--|
B|-----1--------1-----|------1--------1----|----0--------1-----|-----------1-----|---0--|
G|-----------2--------|------------2-------|-0--------2--------|-------0------0--|---1--|
D|--------------------|---0----------------|-------------------|----2------------|---2--|
A|--0-----------------|--------------------|-------------------|--3--------------|---2--|
E|--------------------|--------------------|-------------------|-----------------|---0--|

[Verse 1]
                     Am
Entre tu boca y mi boca
                 Dm            
Existe un mar de cosas 
                   G
que olvidamos decirnos ayer
                        C      E
Cuando te fuiste con el atardecer
                     Am
En un viejo tren sin frenos
                     Dm
Que partió a mil por hora
                  G            Em
Y que de carga se lleva con el
                Am
mi beso en tu boca

[Verse 2]
                  Am
En un vagón te llevaste
                 Dm            
 mi infancia infinita
                   G
Y sin duda le pusiste llave
                        C      E
 al cajón de mis cosas bonitas
                  Am
Yo no pretendo pararte
                 Dm            
Ese tren ya ha partido
                   G             Em
Y a toda marcha decides dejarme
                   Am
 en la estación del olvido

e|--------------|
B|--------------|
G|--------------|
D|--------------|
A|--0---2---3---|
E|--------------|

[Pre-Chorus 1]
Dm         G
Ay ay ay ay
            C
Como me duele
              G
Que te hayas ido

e|--------------|
B|--------------|
G|--------------|
D|--------------|
A|--0---2---3---|
E|--------------|

Dm         E
Ay ay ay ay

[Chorus]
         Dm
Pero jamás olvidaré
              G
Que fuiste lo único que ame
         C                      Am
Que cada noche te acusaba con la luna
        Dm 
Y yo te culpo porque soy
          G
un hombre débil sin control
           C                  Am
Cuando combino rumba y tu cintura
F                  E      Am
Y te repito, como tu ninguna

[Bridge]
e|---9--10--11--12--10--12--10--12-|-12--10--12--10---12--12/13----|
B|---------------------------------|----------------------------12-|
G|---------------------------------|-------------------------------|
D|---------------------------------|-------------------------------|
A|---------------------------------|-------------------------------|
E|---------------------------------|-------------------------------|

e|--------11--9--8--9--12--10---------------------|-----6--5-----------|
B|----------------------------13--12--12--13--11--|-------------8--6---|
G|--6/10------------------------------------------|---6------6---------|
D|------------------------------------------------|--------------------|
A|------------------------------------------------|--------------------|
E|------------------------------------------------|--------------------|

e|-------------------------12-------------------|--0--0--10--8-----0------6-------4------------|
B|----------10--13--10--13-----12--10/12--10/12-|---------------8-------7---7-----5------------|
G|------10--------------------------------------|---------------------8--------8--4------------|
D|--12------------------------------------------|----------------------------------------------|
A|----------------------------------------------|----------------------------------------------|
E|----------------------------------------------|----------------------------------------------|

[Verse 3]
                     Am
Sobre mi almohada impregnado
                 Dm            
se quedó tu perfume
                   G
Con una esencia que roba mis sueños
                        C      E
Hasta en la noche más dulce
                     Am
Me da pavor despertarme
                  Dm            
a solas cada mañana
                        G                                      Am
Y confirmar que si estuve de nuevo a tu lado fue en cuentos de hadas

e|--------------|
B|--------------|
G|--------------|
D|--------------|
A|--0---2---3---|
E|--------------|

[Pre-Chorus 2]
Dm         G
Ay ay ay ay
            C
Como me duele
              G
Que te hayas ido

e|--------------|
B|--------------|
G|--------------|
D|--------------|
A|--0---2---3---|
E|--------------|

Dm         E
Ay ay ay ay

[Chorus]
         Dm
Pero jamás olvidaré
              G
Que fuiste lo único que ame
         C                      Am
Que cada noche te acusaba con la luna
        Dm 
Y yo te culpo porque soy
          G
un hombre débil sin control
           C                  Am
Cuando combino rumba y tu cintura
          F       E      Am
Y te repito, como tu ninguna
          F       E         Am
                        ninguna
e|----------------------------|
B|----------------------------|
G|----------------------------|
D|----------------------------|
A|--0--2--3--2--2/7----3--2--0|
E|----------------------------|

[Outro]
Dm
Ay ay ay ay
G
Ay ay ay ay
C
Ay ay ay ay 
Am
ninguna
Dm
Ay ay ay ay
G
Ay ay ay ay
C
Ay ay ay ay 
Am
ninguna

(No chords till the end)
Ay ay ay ay
Ay ay ay ay
Ay ay ay ay ninguna
Ay ay ay ay
Ay ay ay ay
Ay ay ay ay ninguna

            
            
Suggest correction
Creating personal tab
Creating personal tab
You can edit any tab online and save it as your Personal.

You can edit, replace or remove any tab part or add personal notes – all changes will be seen only by you.

Personal tabs can be accessed anytime from any device, even offline.
Learn more »
Give kudos to tab author, rate the tab!
1 2 3 4 5
comments
print report bad tab
guest
You may want to rate the tab now too:
select rating
Wanna post a correction for this tab? Suggest correction