Oops, an error
Loading. Please wait.

Judy Con Disfraz Chords

37 views 1 this week
no commentswrite comment
1 2 3 4 5
3 more votes to show rating
add to favorites
launch autoscroll
font size
0
reset
transpose
0
reset
display chords
guitar tuner
×
Best way to learn
"Judy Con Disfraz"
Autoscroll
slow
fast
+/-
esc
set tempo
stop
|--------------------------------|--------------------------------|
|--------------------------------|--------------------------------|
|--------------------------------|--------------------------------|
|--------------------------------|--------------------------------|
|3---3---0------------0---3---|----3-------0----------0-----|
|----------------3---------------|----------------3---3-------3---|

|--------------------------------|--------------------------------|
|--------------------------------|--------------------------------|
|--------------------------------|--------------------------------|
|--------------------------------|--------------------------------|
|3---3---0------------0---3---|----3-------0----------0-----|
|----------------3---------------|----------------3---3-------3---|

          C                    G
Judy con disfraz, a bailar llegó
                        C
cuando la ví, ella sonrió
                  G
mis ojos solo vieron
                    C
en Judy y su disfraz, me gusta!

         C                    G
A su lado yo corrí, y la invité
                            C
noche feliz, la que me enamoré
                     G
mi corazón desde que la ví,
                      C
tiene una ilusión, la quiero!

F                          Bb G
La quisiera ver  sin el antifaz
FA              para que pudiera ver
F                      G
su bello rostro sin disfraz.

          C                    G
Judy con disfraz, a bailar llegó
                        C
cuando la ví, ella sonrió
                    G
mis ojos vieron todo el amor
                    C
en Judy y su disfraz, me gusta!

F                          Bb G
La quisiera ver  sin el antifaz
F
para que pudiera ver
F                      G
su bello rostro sin disfraz.

          C                    G
Judy sin disfraz, muy fea resultó

pues Judy sin disfraz,
             C
que desilusión
        G
no quiero volver a verte
         C
por ser tan fea, Judy.
Suggest correction
Give kudos to tab author, rate the tab!
1 2 3 4 5
comments
print report bad tab
guest
You may want to rate the tab now too:
select rating
Wanna post a correction for this tab? Suggest correction