Oops, an error
Loading. Please wait.

Fuera De La Ley Tab

170 views 3 this week
no commentswrite comment
1 2 3 4 5
3 more votes to show rating
add to favorites
launch autoscroll
font size
0
reset
how to read this tab
guitar tuner
×
Best way to learn
"Fuera De La Ley"
Autoscroll
slow
fast
+/-
esc
set tempo
stop
            Riff E

1)------------------------------------------------
2)------------------------------------------------
3)------------------------------------------0-----
4)--------------------------------------------4--2
5)-2-2------2--5--4p2h4p2---2--------2--5---------
6)-0--0--2h3--------------4----0--2h3------0------

            Riff A

1)--------------------------------------------------
2)-------------------------------------------1------
3)----------------------------------------------4--2
4)-2-2------2--5--4p2h4p2---2---------2--5----------
5)-0--0--2h3--------------4----0--2h3-------0-------
6)--------------------------------------------------

             Riff B

1)------------------------
2)------------------------
3)-------------7p6h76-----
4)------------7-------9--7
5)----------9-------------
6)-7--10h11----------------

E
Hago un buen negocio con los verdes
Cruzo por la calle en la mitad
A
Ando en una moto sin papeles
E
compro whisky sin estampillar
   B                 A                   E
No te preocupes tanto ya te vas a acostumbrar

Vuelvo de dormir en otra cama
rompo paragolpes al salir
pongo mil excusas a un cana
ando por la ruta a veinte mil
y digan lo que quieran, no me voy a arrepentir

E
Estoy fuera de la ley (fuera de la ley)
Estoy fuera de la ley (fuera de la ley)
        A
Estoy fuera de la ley (fuera de la ley)
        E
Estoy fuera de la ley (fuera de la ley)
      B                      A
Yo no se si te das cuenta...
                   E
Estoy fuera de la ley...

Solo

Rompo las butacas de algun teatro
SI voy A LA cancha es a pelear
aprendi que dos y dos son cuatro
en la caja fuerte de papá
y en la imprenta de mi barrio
aprendi a falsificar

Estoy fuera...

Solo2

Estoy fuera...
Suggest correction
Give kudos to tab author, rate the tab!
1 2 3 4 5
comments
print report bad tab
guest
You may want to rate the tab now too:
select rating
Wanna post a correction for this tab? Suggest correction