Oops, an error
Loading. Please wait.

El Andariego Tab

20 views 1 this week
no commentswrite comment
1 2 3 4 5
3 more votes to show rating
add to favorites
launch autoscroll
font size
0
reset
how to read this tab
guitar tuner
Autoscroll
slow
fast
+/-
esc
set tempo
stop
Help us to improve Ultimate-Guitar.com Take our survey!
×
esta es la segunda parte es que olvide ponerla en la otra,,,,
hay va

----------------------10-9-10-9-10-9-10
-------------7--9--------------------
------8 7 8--------------------------
-------------------------------------
-------------------------------------
-------------------------------------


--12--12-----10---10---8-------------
--12--12-----10---10---8-------------
-------------------------------------
-------------------------------------
-------------------------------------
-------------------------------------


------------------------------------
--8----10----11----10--8--10--7-9-12-9-7-10
------------------------------------
------------------------------------
------------------------------------
------------------------------------

------------------------7-----12-------
----7-9-10-9-7-------8-----------------
-------------------9-----------------

ya es todo,,,,,,,cualquier pex a mi email,,,
Suggest correction
Give kudos to tab author, rate the tab!
1 2 3 4 5
comments
print report bad tab
guest
You may want to rate the tab now too:
select rating
Wanna post a correction for this tab? Suggest correction