Oops, an error
Loading. Please wait.

Cerca Tab

35 views 1 this week
no commentswrite comment
1 2 3 4 5
3 more votes to show rating
add to favorites
launch autoscroll
font size
0
reset
how to read this tab
guitar tuner
×
Best way to learn
"Cerca"
Autoscroll
slow
fast
+/-
esc
set tempo
stop
Ahí va mi primera transcripción, tiene los mismos acordes que la de Rubén,
pero he puesto también los punteos y eso.
Va dedicada a Xirla (gracias por enseñarme) y a Sara (gracias por elegirme)
Gracias también a Los Secretos por esta pedazo de canción

Intro:

      D     A        E     A      D     A      E
E-||-------------------------------------------------------||
B-||-------------------------------------------------------||
G-||-------------------------------------------------------||
D-||-------------------------------------------------------|| X2
A-||--5-4-2----2-4---2---2----2-4-5-4-2----2-4-2-------2---||
E-||--------5----------4---5------------5-----------2h4----||

 D        A     E         A
Cerca te sigo, cerca estaré
  D                 A            E
siempre pierdo el tiempo y ha salido tu tren
 D        A     E        A
Cerca te miro, cerca me ves
        D         A           E      A
porque vivo escondido dentro de tu piel

      D   A       E    A
E-||-----0--0-------------|
B-||--3---2--2----0-------|
G-||-----------------1-2--|
D-||----------------------|
A-||----------------------|
E-||----------------------|

Cerca del sí o cerca del no
hoy fue para siempre y mañana el adiós
Cerca del frío, cerca del sol
porque vivo escondido en tu corazón

      D     A        E     A
E-||--------------------------|
B-||--------------------------|
G-||--------------------------|
D-||--------------------------|
A-||--5-4-2----2-4---2---2----|
E-||--------5----------4---5--|

      F#m                D                A
Si te vas tan lejos y crees que no estoy
                     E
seré el aire que respires
      F#m               D                A
si tus ojos hacen que pierda el control
                       E
seré un espejo al que mires

         F#m               D             A
Si cualquier capricho me diera ocasión
                   E
conseguiré lo que pides
         F#m             D            D
y aunque yo no quiera pedirte perdón
              E                D*(enlaza con el punteo)
cambiaría el mundo entre tú y yo

      D*    A        E     A      D     A      E
E-||----------------------------------------------|
B-||----------------------------------------------|
G-||----------------------------------------------|
D-||----------------------------------------------|
A-||--5-4-2----2-4---2---2----2-4-5-4-2----2-4-2--|
E-||--------5----------4---5------------5---------|

D           A           E
  Si me preguntas si estoy
D           A       E
  tan loco como yo soy
D           A        E
  no me preguntes a mí
            F#m
  pregúntatelo
                   B7
  qué es lo que pasó
               E
  que nos separó

Solo:
      D     A      E     A         D      A       E
E-||-------------------------------------------------------
B-||-------------------------------------------------------
G-||-------------------------------------------------------
D-||-------------------------------------------------------
A-||----2---2-4----2-4-2-------2-4-5--5-4-4-2-2---------2--
E-||------5------5-------5---5------------------5-4-4-5----

            D       A       E     A         D      A      E     A
E-||---------------------------------------------------------------|
B-||--------------------------------------2-3--3-2-2---------------|
G-||--------------1-2-1-2---4-2-1-2---2-4------------4-2--4-2-1-2--|
D-||----------2-4--------------------------------------------------|
A-||----2-4-5------------------------------------------------------|
E-||--5------------------------------------------------------------|

Cerca del miedo, cerca el valor
siempre que fui fuerte vino la tentación
Cerca del tiempo, cerca otra vez
porque sigo escondido dentro de tu piel

      D     A        E     A
E-||--------------------------|
B-||--------------------------|
G-||--------------------------|
D-||--------------------------|
A-||--5-4-2----2-4---2---2----|
E-||--------5----------4---5--|

Donde el mar y el cielo se suelen fundir
tu arco iris se pierde
donde sólo un sueño me deja dormir
no quedan hadas y duendes

Yo te sigo esperando en la misma ciudad
y sigo aquí por si vuelves
      F#m               D           D
en la misma calle y el mismo portal
                    E           D*
del mundo en que vivíamos tú y yo

Final:

      D*    A        E     A      D     A      E
E-||-------------------------------------------------------
B-||-------------------------------------------------------
G-||-------------------------------------------------------
D-||-------------------------------------------------------
A-||--5-4-2----2-4---2---2----2-4-5-4-2----2-4-2-------2---
E-||--------5----------4---5------------5-----------2h4----

      D     A        E     A      D     A       E     A
E-||-----------------------------------------------------|
B-||-----------------------------------------------------|
G-||-----------------------------------------------------|
D-||-----------------------------------------------------|
A-||--5-4-2----2-4---2---2----2-4-5-4-2----2-4--2---2----|
E-||--------5----------4---5------------5---------4---5--|
Suggest correction
Give kudos to tab author, rate the tab!
1 2 3 4 5
comments
print report bad tab
guest
You may want to rate the tab now too:
select rating
Wanna post a correction for this tab? Suggest correction