Oops, an error
Loading. Please wait.

La Calle Del Olvido Tab

312 views 6 this week
no commentswrite comment
1 2 3 4 5
3 more votes to show rating
add to favorites
launch autoscroll
font size
0
reset
how to read this tab
guitar tuner
Autoscroll
slow
fast
+/-
esc
set tempo
stop
Help us to improve Ultimate-Guitar.com Take our survey!
×
C: 032010
D: 000232
G: 320003
Em:022000
G7:320001
D7:000212
Dm:000231

[intro]
                            C           D                    G                 E
E-||-----------------7--------------------------7-7/8-7-----------------------------------
B-||--------8/10--8------10-8----------------10---------10-8-10/12----8/10-8---8/10-8-----
G-||--7--9--------------------7/9---7/9-7------------------------------------9--------9---
D-||--------------------------------------------------------------------------------------
A-||--------------------------------------------------------------------------------------
E-||--------------------------------------------------------------------------------------

                  C           D                      G            C             G
E-||--------------------------------------------------------------------------------
B-||--10/12-10--8-8-----------------------------------------------8--10/12--10--8---
G-||----------------7/9---7/9-7-----------7-------------------7-9-------------------
D-||-------------------------------7-9-10---10-9-7--------7/9-----------------------
A-||-----------------------------------------------9-10-----------------------------
E-||--------------------------------------------------------------------------------

                  G
Ahora que todo acabó
                          D
y que el tiempo te ha vencido
                 D7  
y tu amigo te dejó
                      G 
dices que cuentas conmigo

Como tienes el valor
                        D 
yo que siempre me he dolido
                    C  D
de recordar lo que fue
                     G    C  G G7
y lo que pudo haber sido

                  C      D
Por la calle del olvido
                      G 
vagan tu sombra y la mía
     (G7)         C   F (Em
cada una en una acera
         Dm  C)      D
por las cosas de la vida
                    C   D
Por la calle del olvido
                       G   Em
donde nunca brilla el día
                  C    D
condenados a una noche
                  G   C G
tan oscura como fría


                   G 
No sabes lo que luché
                  D 
para no soñar contigo
                      D7
y no quieres entender
                         G
que por fin lo he conseguido
  
Yo estaba dispuesto a todo
                 D
para tenerte conmigo,
                    C     D
hasta hubiera trabajado,
                     G    C G G7
y te fuiste con mi amigo


                  C      D
Por la calle del olvido
                      G  (G7)
vagan tu sombra y la mía
                  C   F (Em
cada una en una acera
         Dm  C)      D
por las cosas de la vida
                    C   D
Por la calle del olvido
                       G   Em
donde nunca brilla el día
                  C    D
condenados a una noche
                  G   C G
tan oscura como fría


                            C           D                    G                 E
E-||-----------------7--------------------------7-7/8-7-----------------------------------
B-||--------8/10--8------10-8----------------10---------10-8-10/12----8/10-8---8/10-8-----
G-||--7--9--------------------7/9---7/9-7------------------------------------9--------9---
D-||--------------------------------------------------------------------------------------
A-||--------------------------------------------------------------------------------------
E-||--------------------------------------------------------------------------------------

                  C           D                      G            C             G
E-||------------------------------------------------------------------------10--15---
B-||--10/12-10--8-8-----------------------------------------------8--10/12-----------
G-||----------------7/9---7/9-7-----------7-------------------7-9--------------------
D-||-------------------------------7-9-10---10-9-7--------7/9------------------------
A-||-----------------------------------------------9-10------------------------------
E-||---------------------------------------------------------------------------------


###------------------------------###
### Tablatura de: Enrique Moraño ###
### Sevilla [España] para ATAME  ###
###     emorano@      ###
###------------------------------###
Suggest correction
Give kudos to tab author, rate the tab!
1 2 3 4 5
comments
print report bad tab
guest
You may want to rate the tab now too:
select rating
Wanna post a correction for this tab? Suggest correction