Oops, an error
Loading. Please wait.

Pero A Tu Lado Tab

534 views 3 this week
no commentswrite comment
1 2 3 4 5
3 more votes to show rating
add to favorites
launch autoscroll
font size
0
reset
how to read this tab
guitar tuner
×
Best way to learn
"Pero A Tu Lado"
Autoscroll
slow
fast
+/-
esc
set tempo
stop
En la versión del disco la guitarra es muy secundaria;
de algunos directos ya sin Enrique se puede más o menos
copiar la estructura. Para acompañar melódicamente a la voz
hago bastantes cambios. En la Intro, las sextas deben hacerse con
la derecha cerca del hueso, buscando brillo.

Intro:
   SI                FA#               SOL#m
   ? . ? . ? . ? .   ? . ? . ? . ? .   ? . ? . ? . ? .   ? . ? . ? . ? .
e|-2---------2-----|-6---------6-----|-7---------7-----|-7---------7-----|
B|-------4---------|-------7---------|-------9-------9-|-------9---------|
G|-----4-------4---|-----6-------6---|-----8-------8---|-----8-------8---|
D|-----------------|-4---------------|-6---------------|-6---------------|
A|-2---------------|-----------------|-----------------|-----------------|
E|-----------------|-----------------|-----------------|-----------------|

   MI                FA#                SI    SIsus4      SI    SIsus4
   ? . ? . ? . ? .   ? . ? . ? . ? .    ? . ? . ? . ? .   ? . ? . ? . ? .
e|-----------------|-----------------|------------------|-----------------|
B|-9-----7-----5---|-4-----2---------|--4-----5-----7---|-7-----5-----7---|
G|-----------------|-----------------|*-----------------|----------------*|
D|-9-----8-----6---|-4-----2---------|*-4-----6---------|-8-----6--------*|
A|-----------------|-----------------|------------------|-----------------|
E|-----------------|-----------------|------------------|-----------------|


Estrofa 1:
SI          FA#           SOL#m
He muerto y he resucitado,
MI         FA#     SI
Con mis cenizas un árbol he plantado
             SOL#m
Su fruto ha dado
         MI   FA#
Y desde hoy
            SI   SIsus4  SI  SIsus4
Algo ha empezado.

Estrofa 2:
He roto todos mis poemas
Los de tristezas y de penas
Me lo he pensado,
Y hoy sin dudar
Vuelvo a tu lado.

Estribillo:
MI     FA#              SI
Ayúdame y te habré ayudado
       (FA#) SOL#m
Que hoy he soñado
  (FA#)  MI
En otra vida
         DO#m  FA#
En otro mundo
             SI
Pero a tu lado.

Repetir Intro

Estrofa 3:
Ya no persigo sueños rotos
Los he cosido con el hilo de tus ojos
Y te he cantado
Al son de acordes
Aún no inventados.

Repetir (x2) Estribillo: (entre ambos una estrofa instrumental
para el solo)
Suggest correction
Give kudos to tab author, rate the tab!
1 2 3 4 5
comments
print report bad tab
guest
You may want to rate the tab now too:
select rating
Wanna post a correction for this tab? Suggest correction