Oops, an error
Loading. Please wait.

Que Solo Estas Tab

83 views 1 this week
no commentswrite comment
1 2 3 4 5
3 more votes to show rating
add to favorites
launch autoscroll
font size
0
reset
how to read this tab
guitar tuner
Autoscroll
slow
fast
+/-
esc
set tempo
stop
Help us to improve Ultimate-Guitar.com Take our survey!
×
Dm: 000231
B:  113331
C:  032010
F:  133211
Am: 002210


[cejilla en el primer traste]

[intro x4]
Dm   B   C 

Dm     C         B
Si pudiera recordar qué estoy buscando
Dm   C           B
pararía a descansar,
Dm     C            B
si supiera en realidad que estoy pensando
Dm     C        B
ya podría respirar. 

F          C 
Si mirara más hacia el espejo
Am               B
y menos a la ciudad,
F                 C  
si alguien me llevara aún más lejos
Am                  B
quizás pudiera olvidar. 

Dm   B   C
             qué sólo estás, 
Dm   B   C
             qué sólo estás, 

Dm   B   C   [x2]

Dm       C          B                   [punteo1]:
Si escuchara atentamente tus consejos  
                                        E-||----------------------
                                        B-||--------6-6-----------
                                        G-||--7-7--------9--5-7---
                                        D-||----------------------
                                        A-||----------------------
                                        E-||----------------------


Dm        C           B      [punteo1]
cuando intentas explicar,   
Dm       C          B                   [punteo1]
entonces es cuando ya estoy tan lejos
Dm     C        B                [punteo2]:        
que sólo escucho soledad.
                                        E-||----------5/6-5---
                                        B-||--6/8-6-----------
                                        G-||------------------
                                        D-||------------------
                                        A-||------------------
                                        E-||------------------


F            C             
Cuando paso cerca de un colegio
Am                 B
y me pongo a recordar,
F                 C             
siento que hoy estoy mucho más viejo
Am                       B
y mi mente empieza a hablar

Dm   B   C
             qué sólo estás, 
Dm   B   C
             qué sólo estás, 
Dm   B  C
    contigo 
     Dm    B     C
no cuenta nadie ya. 

Dm    B     C  [x2]

           Dm                 B                   C   
E-||------------------------------------------------------------------------------------
B-||------------------------------------------------------------------------------------
G-||--7-7--5/7-7--5/7-7--5/7-7--5/7-7--5/7-7-7-7-5/7-7--5/7-7--5/7-7--5/7-7--5/7-7------
D-||------------------------------------------------------------------------------------
A-||------------------------------------------------------------------------------------
E-||------------------------------------------------------------------------------------

           Dm                 B                   C  
E-||-------------------------------------------------6-6--5-5---------------------------
B-||-------6/8--6---------------------------8/10--8-------------------------------------
G-||--7-7-------------------------------------------------------------------------------
D-||------------------------------------------------------------------------------------
A-||------------------------------------------------------------------------------------
E-||------------------------------------------------------------------------------------


F          C 
Si mirara más hacia el espejo
Am               B
y menos a la ciudad,
F                 C  
si alguien me llevara aún más lejos
Am                  B
quizás pudiera olvidar. 

Dm   B   C
             qué sólo estás, 
Dm   B   C
             qué sólo estás, 
Dm   B  C
    contigo 
     Dm    B     C
no cuenta nadie ya,  nadie ya. 


Dm   B   C [repetir 5 veces y fundir]


[el punteo del final me temo que quedará para otra ocasión]
###------------------------------###
### Tablatura de: Enrique Moraño ###
### Sevilla [España] para ATAME  ###
###     emorano@      ###
###------------------------------###
Suggest correction
Give kudos to tab author, rate the tab!
1 2 3 4 5
comments
print report bad tab
guest
You may want to rate the tab now too:
select rating
Wanna post a correction for this tab? Suggest correction