Oops, an error
Loading. Please wait.

Quiero Beber Hasta Perder El Control Tab

196 views 1 this week
no commentswrite comment
1 2 3 4 5
3 more votes to show rating
add to favorites
launch autoscroll
font size
0
reset
how to read this tab
guitar tuner
Autoscroll
slow
fast
+/-
esc
set tempo
stop
Help us to improve Ultimate-Guitar.com Take our survey!
×
Es versión de "LOS PÔTES" de Santiago de Compostela

Intruducción G D C/G G

G                            D
Nunca he sentido igual una derrota
                              G
Que cuando ella me dijo se acabó
                         D    D Db C
Nunca creí tener mi vida rota
                    D            G   G Gsus G/D C
Ahora estoy solo y arrastro mi dolor
                 D             Em      Em D G
Y mientras en la calle está lloviendo
                           D   D Db C
Una tormenta hay en mi corazón
                   D           Em     C
Dame otro vaso que aún estoy sereno
G               D               G
Quiero beber hasta perder el control
G                            D
Cuantas noches soñé que regresabas
                                 G
Y en mis brazos llorabas por tu error
                                D    D Db C
Luego un ruido del bar me despertaba
            D                 G   G Gsus G/D C
Y el que lloraba entonces era yo
                  D           Em    Em D G
Y mientras ella está con otro tipo
                              D     D Db C
Mis lágrimas se mezclan con alcohol
        D                    Em   C
Ella se fue por qué no me lo dijo
G               D         G
Y siento que mi vida fracasó
SOLO
G                      D
e|-10-12b13---12-12-10----------------|
b|--------------------12--12-10-10-10-|
g|----------------------12------------|
d|------------------------------------|


e|------------------------10--------------10------|
b|----------10-12-10-12b13--12-10-12r13-13--12-10-|
g|-------11---------------------------------------|
d|-12-12------------------------------------------|

      G
e|-------10-12-10--------|
b|-10--12--------12-10---|
g|---12---------------12-|

                    D
e|-12-15s-----------15-19-15------------------------|
b|----------15h16h17--------17-15-15-15-12----------|
g|-------16-------------------------------14-12--14-|

       Db          C
e|----------------------------14-15-15s12-|
b|-12h13h15-15-13h15h17-17--17------------|
g|----------------------------------------|
d|----------------------------------------|

             D                    G
e|-----------------------------------------------|
b|-12h13h15--12------12h13h15--12----------------|
g|--------------14-14------------14-12--12-12-12-|
d|------------------------------------14---------|

                            G     Gsus  G/D C
e|------10-----------|--------------7----8-|
b|-12h11---10-8---8--|-8--8--10-10---------|
g|--------------9----|---------------------|
                 D             Em   (parada) Em D G
Y mientras en la calle está lloviendo
                           D    D Db C
Una tormenta hay en mi corazón
               D               Em   C
Dame otro vaso que aún estoy sereno
G               D               G
Quiero beber hasta perder el control
                D               C   G D G
Quiero beber hasta perder el control

  Gsus   G/D
e|--3--|--3--|
b|--1--|--3--|
g|--0--|--0--|
d|--2--|--0--|
a|--3--|--2--|
e|--3--|--3--|
Suggest correction
Give kudos to tab author, rate the tab!
1 2 3 4 5
comments
print report bad tab
guest
You may want to rate the tab now too:
select rating
Wanna post a correction for this tab? Suggest correction