Oops, an error
Loading. Please wait.

Mala Mujer Tab

39 views 3 this week
no commentswrite comment
1 2 3 4 5
3 more votes to show rating
add to favorites
launch autoscroll
font size
0
reset
how to read this tab
guitar tuner
Autoscroll
slow
fast
+/-
esc
set tempo
stop
Help us to improve Ultimate-Guitar.com Take our survey!
×
Eb               Eb                Cm                  Eb
6------------------------------------------------------------------------
5------------------------------------------------------------------------
4------------------------------------------------------------------------
3--5-3--1-------3h5--3--1-------3h5--3--1----------------1-1--3h1---1-3h1
2---------3--1------------3--1-------------3--1--3---1h3----------3------
1------------------------------------------------------------------------


    Eb        Eb             Cm            Eb                    Eb
6------------------------------------------------------------------------
5------------------------------------------------------------------------
4------------------------------------------------------------------------
3---1-1----3h5-3--1-------3h5--3--1----------------1-1--3h1---1-3h1-----
2-3-----------------3--1-------------3--1--3---1h3----------3------------
1------------------------------------------------------------------------

6-------
5-------
4----1--
3-------
2--3----
1-------


Eb                                       Cm
No creas que estoy solo si no hay otra en tu lugar
                                    Eb
diciéndome las mismas cosas que decias tu.
                                         Cm
No creas que soy tan bobo para volver a querer,
                 G#                Fm
me has enseñado bien como las gasta una mujer.
                   G#
Más nunca tú tendrás,
Fm                 G#
paz en ningún lugar


         Cm     Eb               Fm
Y no estaría mal decirme algún porqué
               Gm                         G#
explicarme algún fallo, algún error o yo que sé.

         Cm     Eb               Fm
Y no estaría mal decirme algún porqué
               Gm                         G#
explicarme algún fallo, algún error o yo que sé.


    Cm             Eb
Mala mujer mala mujer
           Fm            Gm
que me has robado el corazón.


     Cm            Eb
Mala mujer mala mujer
       Fm                Gm
que me se ha llevado mi amor.


G5G5 G5G5 G5G5 G5G5

           Eb               Eb                Cm                  Eb
6------------------------------------------------------------------------
5------------------------------------------------------------------------
4------------------------------------------------------------------------
3--5-3--1-------3h5--3--1-------3h5--3--1----------------1-1--3h1---1-3h1
2---------3--1------------3--1-------------3--1--3---1h3----------3------
1------------------------------------------------------------------------

6---------
5---------
4---------
3-------1-
2---3-----
1---------


Eb                                       Cm
No volverán los peces en el parque a comer pan,
                                    Eb
que tú y yo lanzamos cada noche por amor.
                                      Cm
Sé que tu inteligencia te hará fácil olvidar,
                 G#               Fm
más de mil recuerdos no caben en un rincón.

                G#
Y sé que llorarás
Fm              G#
que arde tu corazón.


         Cm     Eb               Fm
Y no estaría mal decirme algún porqué
               Gm                         G#
explicarme algún fallo, algún error o yo que sé.


         Cm     Eb               Fm
Y no estaría mal decirme algún porqué
               Gm                         G#
explicarme algún fallo, algún error o yo que sé.


    Cm             Eb
Mala mujer mala mujer
           Fm            Gm
que me has robado el corazón.


     Cm            Eb
Mala mujer mala mujer
         Fm              Gm
que me se ha llevado mi amor.


Guitarra 1
6------------------------------------------------------------------------
5------------------------------------------------------------------------
4------------------------------------------------------------------------
3------------------------------------------------------------------------
2---1---3-3-3-3--3-1-3-3-3-3--3-3-3-3-3-3----3-1-3-3-3-3--3-1-3-3-3--3-3-
1------------------------------------------------------------------------

6------------------------------------------------------------------------
5------------------------------------------------------------------------
4------------------------------------------------------------------------
3------------------------------------------------------------------------
2--3-3-3-3--3-1-3-3-3-3--3-3-3-3-3-3-------------------------------------
1------------------------------------------------------------------------


Guitarra 2

6----------------
5----------------
4-------5vb------
3---3h5-----5----
2----------------
1----------------


Eb           Eb               Eb                Cm                  Eb
6------------------------------------------------------------------------
5------------------------------------------------------------------------
4------------------------------------------------------------------------
3--5-3--1-------3h5--3--1-------3h5--3--1----------------1-1--3h1---1-3h1
2---------3--1------------3--1-------------3--1--3---1h3----------3------
1------------------------------------------------------------------------

6---------
5---------
4---------
3-------1-
2---3-----
1---------


G5G5 G5G5 G5G5


         Cm     Eb               Fm
Y no estaría mal decirme algún porqué
               Gm                         G#
explicarme algún fallo, algún error o yo que sé.

[x4]


    Cm             Eb
Mala mujer mala mujer
           Fm            Gm
que me has robado el corazón.


Cm            Eb
Muy mala muy mala,

Fm                 Gm
tú eres una mala mujer,
Cm           Eb        Fm
que me ha robado el corazón
          Gm
y se ha llevado.

Cm     Eb       Fm                 G5G5 G5G5 G5G5 G5G5 G5 G5 Cm
Mala mujer, tú eres una mala mujer.


Acordes:

Eb:X65343
Cm:X35543
G#:466544
Fm:133111
Gm:355333
G5:355XXX

Xavier Fuentes Collado
Suggest correction
Give kudos to tab author, rate the tab!
1 2 3 4 5
comments
print report bad tab
guest
You may want to rate the tab now too:
select rating
Wanna post a correction for this tab? Suggest correction