Oops, an error
Loading. Please wait.

El Aguajal Chords

version 2
version 2

Whole song

205 views 1 this week
no commentswrite comment
1 2 3 4 5
3 more votes to show rating
add to favorites
launch autoscroll
font size
0
reset
transpose
0
reset
display chords
guitar tuner
×
Best way to learn
"El Aguajal"
Autoscroll
slow
fast
+/-
esc
set tempo
stop
1/----0-0-0---------------------0--
2/--0-------0-3-3-3--0-0-3-0-3-0-3-
3/---------------------------------

1/-------------------------------
2/--0-0-0-------------------0----
3/-0-------2-0-----0-0-0------2-0
4/------------2-0--------2-0-----

1/----------------------------------
2/--0-0-0-------------------0-------
3/-0-------2-0-----0-0-0------2-0---
4/------------2-0--------2-0------2-

F              C
si se marcho... sin un adiós
F              C
si se marcho sin un adiós
                      Am
que se vaya que se vaya

C
amores hay, cariños hay
                    Am
todititos traicioneros
C
amores hay, cariños hay
                    Am
Todititos  Ebmusteros

F           C
El aguajal de este lugar
                      Am
solo sabe mis sufrimientos
F           C
El papayal de este lugar
                     Am
solo sabe mis tormentos

C                 Am
llamo aqui,llamo alla
sin que nadie me conteste
C
miro aqui miro alla
sin que nadie se aparece...
                     Am
sin que nadie se aparece
Suggest correction
Give kudos to tab author, rate the tab!
1 2 3 4 5
comments
print report bad tab
guest
You may want to rate the tab now too:
select rating
Wanna post a correction for this tab? Suggest correction