Oops, an error
Loading. Please wait.

Amor Querido Chords

28 views 1 this week
no commentswrite comment
1 2 3 4 5
3 more votes to show rating
add to favorites
launch autoscroll
font size
0
reset
transpose
0
reset
simplify chords
display chords
guitar tuner
Autoscroll
slow
fast
+/-
esc
set tempo
stop
Help us to improve Ultimate-Guitar.com Take our survey!
×
Aqui esta la tan aclamada 'Amor querido'. Por lo que sé es muy gustada esta 
cancion, sinceramente no es que no me guste pero me gustan mas otras...
De todas formas aqui la tienen.

Intro
e|----------------------------|--------------------------------|
b|----------------------------|--------------------------------|
g|----------------------------|--------------------------------|
d|---8-8-8-8/6-6-6-4--4-6-6-8-|---8-8-8-8/6-6-6-6-4--4-6-6-6---|
a|-9--------------------------|-9----------------------------9-|
e|----------------------------|--------------------------------|


-De esta parte no estoy muy seguro-
e|-6-6-6--------6-6-6----------|
b|-7-7-7-7-9-11-7-7-7-7-9-7-7--|
g|-------8------------8--------|
d|-----------------------------|
a|-----------------------------|
e|-----------------------------|


F#               D#m
Si tienes un cariñito 
G#m              C#7
para que quieres mas
F#               D#m
si tienes unas caricias
G#m              C#7
para que buscas mas

lloraras, sufriras
porque asi pasa
si quieres tu mas
siempre sufriras
Una vez yo quise 
con todo el corazon
otra vez yo quise
y fue mera ilusion
Y siempre que tu busques mas
mas en amores
muchas alegrias tendras
mas un dia lloraras
Una vez me dijeron 
que si me queria ir
que lo hiciera sin pensarlo
y ya no hiciera sufrir
y a poco de pasar el tiempo
volvi arrepentido
ahora si buscando un consuelo
que ya no pude encontrar.

-SE repite-

Ay! amor querido
no sufras mas 
si llorar y sufrir tu quisiste
que remedias lo demas

Pues ahi esta la tan comentada cancion, como veran va en circulo de Fa sost.
Espero y les agrade.
Cualquier duda y/o comentario no duden en mandarlo a:
vege@
Suggest correction
Give kudos to tab author, rate the tab!
1 2 3 4 5
comments
print report bad tab
guest
You may want to rate the tab now too:
select rating
Wanna post a correction for this tab? Suggest correction