Oops, an error
Loading. Please wait.

Amor Querido Tab

87 views 1 this week
no commentswrite comment
1 2 3 4 5
3 more votes to show rating
add to favorites
launch autoscroll
font size
0
reset
how to read this tab
guitar tuner
×
Best way to learn
"Amor Querido"
Autoscroll
slow
fast
+/-
esc
set tempo
stop
la corregi por que los acordes y el intro estavan mal

h= hammer    s= slide

Intro
e|---------------------------------|
b|---------------------------------|
g|---2-2--0-2-0h2--------0-0--0-2--|
d|----------------3--2-3-----3-----|
a|-3-------------------------------|
e|---------------------------------|

e|---------------------------------|
b|---------------------------------|
g|---2-2--0-2-0h2--------0-0-------|
d|----------------3--2-3-----3-2-3-|
a|-3-------------------------------|
e|---------------------------------|


e|--------1-1-1-1--------------------1------|
b|------1-1-1-1-1------3-3---5-3s5s3-1------|
g|----2-----------2-0--3-3---5-3s5s3-2------|
d|--3--------------------------------3------|
a|------------------------------------------|
e|------------------------------------------|


e|--------1-1-1-1-----------------------1---|
b|------1-1-1-1-1------3-3--3-3-1-------1---|
g|----2-----------2-0--3-3--------3-2-0-2---|
d|--3-----------------------------------3---|
a|------------------------------------------|
e|------------------------------------------|


F               A#
Si tienes un cariñito
C               F
para que quieres mas
F               A#
si tienes unas caricias
C               F
para que buscas mas

lloraras, sufriras
porque asi pasa
si quieres tu mas
siempre sufriras
Una vez yo quise
con todo el corazon
otra vez yo quise
y fue mera ilusion
Y siempre que tu busques mas
mas en amores
muchas alegrias tendras
mas un dia lloraras
Una vez me dijeron
que si me queria ir
que lo hiciera sin pensarlo
y ya no hiciera sufrir
y a poco de pasar el tiempo
volvi arrepentido
ahora si buscando un consuelo
que ya no pude encontrar.

-SE repite-

Ay! amor querido
no sufras mas
si llorar y sufrir tu quisiste
que remedias lo demas

ACORDE:  C
e|-----3----------------------|
b|-----5----------------------|
g|-----5----------------------|
d|-----5----------------------|
a|-----3----------------------|
e|-----3----------------------|

Pues ahi esta la tan comentada cancion, como veran
va en circulo de Fa sost. Espero y les agrade.
Cualquier duda y/o comentario no duden en mandarlo a:
vege@
Suggest correction
Give kudos to tab author, rate the tab!
1 2 3 4 5
comments
print report bad tab
guest
You may want to rate the tab now too:
select rating
Wanna post a correction for this tab? Suggest correction