Oops, an error
Loading. Please wait.

Maldigo Mi Destino Tab

59 views 1 this week
no commentswrite comment
1 2 3 4 5
3 more votes to show rating
add to favorites
launch autoscroll
font size
0
reset
how to read this tab
guitar tuner
×
Best way to learn
"Maldigo Mi Destino"
Autoscroll
slow
fast
+/-
esc
set tempo
stop
Intro:  MI  LA

              LA
Maldigo mi destino, mi estrella se eclipsó,

a lo largo de mi vida, mi suerte no nació.
             RE                  MI
Pedí comprensión, sin poner ambición,
           LA   FA#m        RE
como es posible morir si en este mundo,
          MI     LA
no has logrado vivir.

Trabajar por el dinero, o vender tu voluntat,
defraudar a un buen amigo, o compartir la soledad.
Tienes derecho a pedir, que te permitan subsistir,
como es posible morir si en este mundo,
no has logrado vivir.

Transcurridos varios años, mi desgracia sigue igual,
defraudado y consumido, no lo consigo superar.
Tengo derecho a pedir, que me permitan subsistir,
como es posible morir si en este mundo,
no has logrado vivir.

SOLO:

E--12-10-9-12--12--9-------12-10-9-12--12-9--------------------
B---------------------10---------------------10----10----------
G-----------------------------------------------11-------------
D--------------------------------------------------------------
A--------------------------------------------------------------
E--------------------------------------------------------------

E--12-10-9-12--12--9-------12-10-9-12--12-9--------------------
B---------------------12---------------------10----------------
G--------------------------------------------------------------
D--------------------------------------------------------------
A--------------------------------------------------------------
E--------------------------------------------------------------

E--12-10-9-12--12--9--12--9--12--9--12--9----------------------
B------------------------------------------10------------------
G--------------------------------------------------------------
D--------------------------------------------------------------
A--------------------------------------------------------------
E--------------------------------------------------------------

E--12-10-9-12--12-9-------------12-10-9-12-12-9----------------
B-------------------10----10---------------------12------------
G----------------------11--------------------------------------
D--------------------------------------------------------------
A--------------------------------------------------------------
E--------------------------------------------------------------

E--12-10-9-12--12--9-------------------------------------------
B---------------------10---8-9-10------------------------------
G--------------------------------------------------------------
D--------------------------------------------------------------
A--------------------------------------------------------------
E--------------------------------------------------------------

Maldigo mi destino, mi estrella se eclipsó,

a lo largo de mi vida, mi suerte no nació.
             RE                  MI
Pedí comprensión, sin poner ambición,
           LA   FA#m        RE
como es posible morir si en este mundo,
          MI     LA
no has logrado vivir.


Transcurridos varios años, mi desgracia sigue igual,
defraudado y consumido, no lo consigo superar.
Tengo derecho a pedir, que me permitan subsistir,
como es posible morir si en este mundo,
no has logrado vivir.
como es posible morir si en este mundo,
no has logrado vivir.

REPETIR SOLO HASTA EL FINAL

(Esta canción se la dedico a Juan Cano de Málaga que me ayudó mucho
en mis principios guitarreros)
Suggest correction
Give kudos to tab author, rate the tab!
1 2 3 4 5
comments
print report bad tab
guest
You may want to rate the tab now too:
select rating
Wanna post a correction for this tab? Suggest correction