Oops, an error
Loading. Please wait.

Al Ritmo De La Lluvia Tab

119 views 3 this week
no commentswrite comment
1 2 3 4 5
3 more votes to show rating
add to favorites
launch autoscroll
font size
0
reset
how to read this tab
guitar tuner
×
Best way to learn
"Al Ritmo De La Lluvia"
Autoscroll
slow
fast
+/-
esc
set tempo
stop
Intro: E   C#m   E   B7

E                       A
Esos golpecitos que escuchaste tú
E                         B7
fueron lágrimas que te lloré
   E                        A
al ritmo de la lluvia las dejé caer
     B7                 E B7
para que fueran junto a ti

   E                    A
La música del cielo empezó a llegar
E                   B7
cuando yo lloré por ti
   E                  A
y lágrimas y gotas quisieron cantar
   B7             E     E7
al ritmo de la lluvia

A                       G#m
Lluvia ve y dile que la esperaré
       A                   E
aunque ella no quiera regresar a mí
C#m                 A        B7         E     B7
aún tengo fe de que vuelva a brillar el sol

   E                    A
La música del cielo empezó a llegar
E                   B7
cuando yo lloré por ti
   E                  A
y lágrimas y gotas quisieron cantar
   B7             E B7
al ritmo de la lluvia

   E                    A         E               B7
E|-8/9-7------------------------|-8/9-7-----------7-|-
B|-------9---6/7--------6/7---7-|-------9---6/7-----|-
G|---------9------9-9-9-----9---|---------9-----9---|-
D|------------------------------|-------------------|-
A|------------------------------|-------------------|-
E|------------------------------|-------------------|-

     E                    A         B7              A     A7
  E|-8/9-7------------------------|-----7-----7-------|
  B|-------9---6/7--------6/7-----|-8/9---8/9---9-----|
  G|---------9------9-9-9-----9-9-|-----------------9-|
  D|------------------------------|---------------9---|
  A|------------------------------|-------------------|
  E|------------------------------|-------------------|

A                       G#m
Lluvia ve y dile que la esperaré
       A                   E
aunque ella no quiera regresar a mí
C#m                 A        B7         E     B7
aún tengo fe de que vuelva a brillar el sol

E                       A
Esos golpecitos que escuchaste tú
E                         B7
fueron lágrimas que te lloré
   E                        A
al ritmo de la lluvia las dejé caer
     B7                 E B7   E
para que fueran junto a ti

            C#m      E
Ritmo de la lluvia
             C#m          E
no dejes que llore solo
          C#m            E
oh, ritmo de la lluvia
           C#m          E
ten cuenta de mi amor
         C#m            E (fade out)
oh ritmo de la lluvia

101129 Ricardo Hernández Delgadillo (
Suggest correction
Give kudos to tab author, rate the tab!
1 2 3 4 5
comments
print report bad tab
guest
You may want to rate the tab now too:
select rating
Wanna post a correction for this tab? Suggest correction