Oops, an error
Loading. Please wait.

Juarez Tab

44 views 1 this week
no commentswrite comment
1 2 3 4 5
3 more votes to show rating
add to favorites
launch autoscroll
font size
0
reset
how to read this tab
guitar tuner
×
Best way to learn
"Juarez"
Autoscroll
slow
fast
+/-
esc
set tempo
stop
=CAPO EN EL SEGUNDO TRASTE=

     C       Dm      G7    Dm      G7
Juárez no debió de morir  ahí de morir
     C       Dm      G7    Dm      G7
Juárez no debió de morir  ahí de morir
            A                  F
por que si Juárez no hubiera muerto
            A                  F
por que si Juárez no hubiera muerto
    C    C7   F  (C-C-G-G) <-UN RASGUEO POR NOTA
todavía viviría

      =EL REQUINTO VA SIN EL CAPO=
E--------------------------------
B---9--7-9-10--------10----------
G-7-----------9-10-8----9-10-8---
D--------------------------------
A--------------------------------
E--------------------------------

E--------------------------------
B-2-9--7-9-10--------10----------
G-------------9-10-8----9-10-8---
D--------------------------------
A--------------------------------
E--------------------------------

E--------------------------------
B--------------------------------
G--------------------------------
D-2-2-2-7-7-7-7-6-9-7------------
A--------------------------------
E--------------------------------

E-----------------------------------------------------
B-----------------------------------------------------
G-------------------------9-9-9-7---------------------
D-2-2-2-7-7-7-7-6-9-7------------9-7------------------
A-----------------------------------9-7---------------
E------------------------------------------(2-2-7-7-)-
                                             bajeo/
Suggest correction
Give kudos to tab author, rate the tab!
1 2 3 4 5
comments
print report bad tab
guest
You may want to rate the tab now too:
select rating
Wanna post a correction for this tab? Suggest correction