Oops, an error
Loading. Please wait.

Vamos A Platicar Tab

version 1
version 1

Whole song

17 views 1 this week
no commentswrite comment
1 2 3 4 5
3 more votes to show rating
add to favorites
launch autoscroll
font size
0
reset
how to read this tab
guitar tuner
×
Best way to learn
"Vamos A Platicar"
Autoscroll
slow
fast
+/-
esc
set tempo
stop
ACOMPAÑAMIENTO CON Gm,C,F,Dm,Gm,A7,Dm,D7


e|-6-----6-----3-----3-----5-----5-----1-----1---/
b|-8-----8-----5-----5-----6-----6-----3-----3---/
g|-7--7--7--7--4--4--4--4--5--5--5--5--2--2--2--2/
d|-----------------------------------------------/
a|-----------------------------------------------/
e|-----------------------------------------------/

e|-3-----3-----0-----0-----1-----1-----1--1--1--1/
b|-3-----3-----2-----2-----3-----3-----3--3--3--3/
g|-3--3--3--3--2--2--2--2--2--2--2--2--2--2--2--2/
d|-----------------------------------------------/
a|-----------------------------------------------/
e|-----------------------------------------------/

REQUINTO

e|-5-----5--6-/-6-----------------5-/-5-------/
b|----8-----------6--5-/-5--6--8--------------/
g|---------------------------------------9--7-/
d|--------------------------------------------/
a|--------------------------------------------/
e|--------------------------------------------/

e|-----------------------------/
b|-------6--8-/-8--------------/
g|-7--9------------7--6-/-9--7-/
d|-----------------------------/
a|-----------------------------/
e|-----------------------------/

Y SE REPITE EL REQUINTO
Suggest correction
Give kudos to tab author, rate the tab!
1 2 3 4 5
comments
print report bad tab
guest
You may want to rate the tab now too:
select rating
Wanna post a correction for this tab? Suggest correction