Oops, an error
Loading. Please wait.

El Tiempo Que Has Llorado Tab

68 views 1 this week
no commentswrite comment
1 2 3 4 5
3 more votes to show rating
add to favorites
launch autoscroll
font size
0
reset
how to read this tab
guitar tuner
×
Best way to learn
"El Tiempo Que Has Llorado"
Autoscroll
slow
fast
+/-
esc
set tempo
stop
Este es el requinto que al principio de la cancion se repite dos veces
como esta en la cancion. Espero les salga bien y hechenle ganas..

REQUINTO.....
e---------------------------------------------------------------/
b---------------------------------------5---------------5-------/
g-----------------------------------5---------------5-----------/
d-----------5---7/9/7---5-------7-----------7---6---------------/
a-5---5/7-------------------7-----------------------------------/
E---------------------------------------------------------------/


e---------------------------------------------------------------/
b-------------5---------------3---------------3---------------3-/
g---------5---------------4---------------4---------------4-----/
d-6---5-----------5---5-----------5---4-----------4---5---------/  X 2
a---------------------------------------------------------------/
E---------------------------------------------------------------/

estos acordes van rasgeados tal como esta escrito....
e---------------------------------------------------------------/
b-5---5---5---3-------------------------------------------------/
g-4---4---4---4-------------------------------------------------/
d-5---5---5---5-------------------------------------------------/
a---------------------------------------------------------------/
E---------------------------------------------------------------/
este requinto esta muy facil, si tengo algun error por favor no
olviden en corregirme o mandarme un mesaje a mi correo porfavor
liker_gr@
(un saludo para mi novia marcela y para toda la gente de tijuana).
Suggest correction
Give kudos to tab author, rate the tab!
1 2 3 4 5
comments
print report bad tab
guest
You may want to rate the tab now too:
select rating
Wanna post a correction for this tab? Suggest correction