Oops, an error
Loading. Please wait.

The Casbah Tab

version 2
version 2

Whole song

112 views 1 this week
no commentswrite comment
1 2 3 4 5
3 more votes to show rating
add to favorites
launch autoscroll
font size
0
reset
how to read this tab
guitar tuner
Autoscroll
slow
fast
+/-
esc
set tempo
stop
Help us to improve Ultimate-Guitar.com Take our survey!
×
Author
Difficulty
intermediate
"The Casbah"
From the Viva! Album by Los Straitjackets

Tab is 99.999 percent accurate.  Enjoy!!!

[Intro]

e|-------------------|-------------------|
B|-------------------|-------------------|
G|--0-2-3\7--2/7--0~-|--0-2-3/7-2/7--0~--|
D|-------------------|-------------------|
A|-------------------|-------------------|
E|-------------------|-------------------|

e|---------------|--------3--------------|--------3-------------|--------3--------------------------------|
B|--3---3--------|--3-2-3---6-3----------|--3-2-3---6-3---------|--3-2-3---6-3----------------------------|
G|--------3-2----|--------------6\5-3----|--------------6\5-3---|--------------6\5-3----------------------|
D|------------5--|--------------------5--|--------------------5-|--------------------5--5-----------------|
A|---------------|-----------------------|----------------------|-----------------------------------------|
E|---------------|-----------------------|----------------------|-----------------------------------------|

e|--------------------------------------------------------------------|-----------------------------------|
B|--------------------------------------------------------------------|----/21---/15\---------------------|
G|-----3--4--5-5-5-5-5-5-5-5-5-5-5-5-6-6-6-6-7-7-7-7-7-7-7-7-7-7-7-7--|-----------------------------------|
D|--5-----------------------------------------------------------------|-----------------------------------|
A|--------------------------------------------------------------------|-----------------------------------|
E|--------------------------------------------------------------------|-----------------------------------|

e|---------------|--------3--------------|--------3-------------|--------3--------------------------------|
B|--3---3--------|--3-2-3---6-3----------|--3-2-3---6-3---------|--3-2-3---6-3----------------------------|
G|--------3-2----|--------------6\5-3----|--------------6\5-3---|--------------6\5-3----------------------|
D|------------5--|--------------------5--|--------------------5-|--------------------5--5-----------------|
A|---------------|-----------------------|----------------------|-----------------------------------------|
E|---------------|-----------------------|----------------------|-----------------------------------------|

e|--------------------------------------------------------------------|--15-------------------------------|
B|--------------------------------------------------------------------|-----18b---------------------------|
G|-----3--4--5-5-5-5-5-5-5-5-5-5-5-5-6-6-6-6-7-7-7-7-7-7-7-7-7-7-7-7--|---------17br-15-------------------|
D|--5-----------------------------------------------------------------|-----------------17----------------|
A|--------------------------------------------------------------------|-----------------------------------|
E|--------------------------------------------------------------------|-----------------------------------|

e|---------------|--------3--------------|--------3-------------|--------3--------------------------------|
B|--3---3--------|--3-2-3---6-3----------|--3-2-3---6-3---------|--3-2-3---6-3----------------------------|
G|--------3-2----|--------------6\5-3----|--------------6\5-3---|--------------6\5-3----------------------|
D|------------5--|--------------------5--|--------------------5-|--------------------5--5-----------------|
A|---------------|-----------------------|----------------------|-----------------------------------------|
E|---------------|-----------------------|----------------------|-----------------------------------------|


[Solo]

e|--/15-15~-15~-------|---------------------------|--------------------------|------------------15--------|
B|--------------------|---------------------------|--------15----15----------|---------------15----18-15--|
G|--------------------|-----15--17b-17b-17--15----|--------15----15----------|-----15-17-17b--------------|
D|--------------17-17-|--17--------------------17-|--17-17----17----17---17--|--17------------------------|
A|--------------------|---------------------------|--17-17-------------------|----------------------------|
E|--------------------|---------------------------|--------------------------|----------------------------|

e|--18b----15-----------------------------------------------------|---------------------------------------|
B|------------18-15----------17----15----17-15--------------------|-----------------15----17-15b----------|
G|------------------18-17-15-17----15----17-15--------------------|-----------------15----17-15b----------|
D|------------------------------17----17-------17-15-17-17-15-17--|-----15-16-17-17----17-----------------|
A|----------------------------------------------------------------|--17-----------------------------------|
E|----------------------------------------------------------------|---------------------------------------|

e|------15-----------|-------------------------------------15----------|--/15-15~-15~--15-18--------------|
B|---------------15--|------------------15----17-15b-------------------|----------------------------------|
G|--17b----17br--15--|------------------15----17-15b---17b----17br-15--|----------------------------------|
D|-------------------|-----15-16-17--17----17--------------------------|----------------------------------|
A|-------------------|--17---------------------------------------------|----------------------------------|
E|-------------------|-------------------------------------------------|----------------------------------|

e|--20b-20b-20--18--18b-18b-18-15-----------18------------------------------------------------------------|
B|--------------------------------18-15-------------------------------------------------------------------|
G|--------------------------------------17b----17br-15-17----15-------------------------------------------|
D|--------------------------------------------------------17----17-15-17----------------------------------|
A|--------------------------------------------------------------------------------------------------------|
E|--------------------------------------------------------------------------------------------------------|
                                                                                              End of Solo  
e|--/15-15-15-------------------------------------|--/15-15-15------------------15------------------------|
B|--/15-15-15---------------------17-15-----------|--/15-15-15--------------------------------------------|
G|------------17br-15----17-15----17-15-----------|------------17-15---17-15----------15------------------|
D|--------------------17-------17-------17-15-17--|------------------17------17----17----17-15-17\--------|
A|------------------------------------------------|-------------------------------------------------------|
E|------------------------------------------------|-------------------------------------------------------|

  Multiple Guitar Harmonies, Tabbed for Primary Guitar Lead
e|-----------------------------------------|--------------------------------------------------------------|
B|-----------------------------------------|----3-2-3-----3-2-3-----3-2-3----3-2-3------------------------|
G|--0-3-2-3---0-3-2-3---0-3-2-3---0-3-2-3--|--3---------3---------3---------3-----------------------------|
D|-----------------------------------------|--------------------------------------------------------------|
A|-----------------------------------------|--------------------------------------------------------------|
E|-----------------------------------------|--------------------------------------------------------------|

e|-----------------------------------------|--3-6-5-6---3-6-5-6---3-6-5-6---3\----------------------------|
B|--3-6-5-6---3-6-5-6---3-6-5-6---3-6-5-6--|--------------------------------------------------------------|
G|-----------------------------------------|--------------------------------------------------------------|
D|-----------------------------------------|--------------------------------------------------------------|
A|-----------------------------------------|--------------------------------------------------------------|
E|-----------------------------------------|--------------------------------------------------------------|

e|---------------|--------3--------------|--------3-------------|--------3--------------------------------|
B|--3---3--------|--3-2-3---6-3----------|--3-2-3---6-3---------|--3-2-3---6-3----------------------------|
G|--------3-2----|--------------6\5-3----|--------------6\5-3---|--------------6\5-3----------------------|
D|------------5--|--------------------5--|--------------------5-|--------------------5--5-----------------|
A|---------------|-----------------------|----------------------|-----------------------------------------|
E|---------------|-----------------------|----------------------|-----------------------------------------|

e|--------------------------------------------------------------------|--15-------------------------------|
B|--------------------------------------------------------------------|-----18b---------------------------|
G|-----3--4--5-5-5-5-5-5-5-5-5-5-5-5-6-6-6-6-7-7-7-7-7-7-7-7-7-7-7-7/-|---------17br--15------------------|
D|--5-----------------------------------------------------------------|------------------17---------------|
A|--------------------------------------------------------------------|-----------------------------------|
E|--------------------------------------------------------------------|-----------------------------------|

e|---------------|--------3--------------|--------3-------------|--------3--------------------------------|
B|--3---3--------|--3-2-3---6-3----------|--3-2-3---6-3---------|--3-2-3---6-3----------------------------|
G|--------3-2----|--------------6\5-3----|--------------6\5-3---|--------------6\5-3----------------------|
D|------------5--|--------------------5--|--------------------5-|--------------------5--5-----------------|
A|---------------|-----------------------|----------------------|-----------------------------------------|
E|---------------|-----------------------|----------------------|-----------------------------------------|


[Outro]
 
          Multiple Guitar Harmonies, Tabbed for Primary Guitar Lead
e|-----------------------------------------|--------------------------------------------------------------|
B|-----------------------------------------|--------------------------------------------------------------|
G|-----------------------------------------|--------------------------------------------------------------|
D|-----------------------------------------|----0---0-----0---0-----0---0-----0---0-----------------------|
A|----1-0-1-----1-0-1-----1-0-1-----1-0-1--|--1---4-----1---4-----1---4-----1---4-------------------------|
E|--3---------3---------3---------3--------|--------------------------------------------------------------|

e|-----------------------------------------|--------------------------------------------------------------|
B|-----------------------------------------|--------------------------------------------------------------|
G|-----------------------------------------|--0-3-2-3---0-3-2-3---0-3-2-3---0-3-2-3-----------------------|
D|--0-3-2-3---0-3-2-3---0-3-2-3---0-3-2-3--|--------------------------------------------------------------|
A|-----------------------------------------|--------------------------------------------------------------|
E|-----------------------------------------|--------------------------------------------------------------|

e|-----------------------------------------|--------------------------------------------------------------|
B|----3-2-3-----3-2-3-----3-2-3-----3-2-3--|--3-6-5-6---3-6-5-6---3-6-5-6---3-6-5-6-----------------------|
G|--3---------3---------3---------3--------|--------------------------------------------------------------|
D|-----------------------------------------|--------------------------------------------------------------|
A|-----------------------------------------|--------------------------------------------------------------|
E|-----------------------------------------|--------------------------------------------------------------|

e|--3-6-5-6---3-6-5-6---3-6-5-6---3-6-5-6--|--6-10-9-10---6-10-9-10---6-10-9-10---6-10-9-10--6\-----------|
B|-----------------------------------------|--------------------------------------------------------------|
G|-----------------------------------------|--------------------------------------------------------------|
D|-----------------------------------------|--------------------------------------------------------------|
A|-----------------------------------------|--------------------------------------------------------------|
E|-----------------------------------------|--------------------------------------------------------------|
                 
                 Gm  Tremolo Bar       End
e|----------------3~~~-----------------------|
B|----------------3~~~-----------------------|
G|----------------3~~~-----------------------|
D|--5-------------5~~~-----------------------|
A|------5~----5---5~~~-----------------------|
E|----6-----6-----3~~~-----------------------|


************************************

| b   Bend
| br  Bend release
| /   Slide up
| \   Slide down
| ~   Vibrato

************************************
Suggest correction
Give kudos to tab author, rate the tab!
1 2 3 4 5
comments
print report bad tab
guest
You may want to rate the tab now too:
select rating
Wanna post a correction for this tab? Suggest correction