Oops, an error
Loading. Please wait.

El Tab

17 views 1 this week
no commentswrite comment
1 2 3 4 5
3 more votes to show rating
add to favorites
launch autoscroll
font size
0
reset
how to read this tab
guitar tuner
Autoscroll
slow
fast
+/-
esc
set tempo
stop
Help us to improve Ultimate-Guitar.com Take our survey!
×
|-----------8---------------5----||-----------5---------------7----|
|---------8---8-----------5---5--||---------6---6-----------8---8--|
|------9---------9-----5--------5||------5---------5-----7--------7|
|--10---------------7------------||---7---------------9------------|
|--------------------------------||--------------------------------|
|--------------------------------||--------------------------------|


Requinto:

|---12---10-12-10--8-----7-8--7---5---3-5-6---7--|
|---13---12-13-12--10----8-10-8---6---5-6-7---8--|
Suggest correction
Give kudos to tab author, rate the tab!
1 2 3 4 5
comments
print report bad tab
guest
You may want to rate the tab now too:
select rating
Wanna post a correction for this tab? Suggest correction