Oops, an error
Loading. Please wait.

Antisocial Tab

101 views 1 this week
no commentswrite comment
1 2 3 4 5
3 more votes to show rating
add to favorites
launch autoscroll
font size
0
reset
how to read this tab
guitar tuner
Autoscroll
slow
fast
+/-
esc
set tempo
stop
Help us to improve Ultimate-Guitar.com Take our survey!
×
+ Tabulados de made in spain!                   +
+ [                        +
+++++++++++++++++++++++++++++++++++++++++++++++++

INTRO
e |-------------0--------------|--------------------|
B |----3-----------3-----------|--------------------|
G |----0-----0-----------------|--------------------|
D |----2-----------------------|-----5--------------|
A |----3-----------------------|-----3--------------|
E |----------------------------|--------------------|

         Alberto                    Montxo

e |------------0---------------|--------------------|
B |----3----------3------------|--------------------|
G |----0----0------------------|--------------------|
D |----0-----------------------|--------------------|
A |----2-----------------------|-----5--------------|
E |----3-----------------------|-----3--------------|

VERSO
D5 A#5 C5 A5 D5 A5

 Alberto hace el palm mute y Montxo toca las quintas al aire.
   Toda la cancion es igual, excepto:

e |----------------------------------------------------------|
B |----------------------------------------------------------|
G |----------------------------------------------------------|
D |--------------3--------7-------7--5-----------------------|
A |--------3--5-----5--3--5-------5--3--5--3-----------------|
E |-----5-------------------------------3--1-----------------|

                                 Antisocial...

e |--------------------------------------------------------------|
B |--------------------------------------------------------------|
G |--------------------------------------------------------------|
D |--------------3--------7-------7--5---------------------------|
A |--------3--5-----5--3--5-------5--3--0--3--0--3--5--3---------|
E |-----5-------------------------------------------3--1---------|

                                 Piensas en tus años de ...

e |----------------------------------------------------------|
B |----------------------------------------------------------|
G |----------------------------------------------------------|
D |--------------3--------7-------7--5-----------------------|
A |--------3--5-----5--3--5-------5--3--5--3-----------------|
E |-----5-------------------------------3--1-----------------|

                                  Antisocial...

e |---------------------------------------------------------------------|
B |---------------------------------------------------------------------|
G |---------------------------------------------------------------------|
D |----------3--------7-------7--5-----------------------------------5--|
A |----3--5-----5--3--5-------5--3--5--------------------------------3--|
E |-5-------------------------------3--0--3--0--3--0--3--0--3--0--3-----|

                                 Siglos y siglos de malicia...


   Durante el solo     Despues del solo

e |----------------|---------------------------------------------------|
B |----------------|---------------------------------------------------|
G |----------------|---------------------------------------------------|
D |----5----7------|--7--------5-----------------7-----------------7---|
A |----3----5------|--5--------3--2--0--3--3--0--5--2--0--3--3--0--5---|
E |----------------|---------------------------------------------------|
Suggest correction
Give kudos to tab author, rate the tab!
1 2 3 4 5
comments
print report bad tab
guest
You may want to rate the tab now too:
select rating
Wanna post a correction for this tab? Suggest correction