Oops, an error
Loading. Please wait.

Dolores Se Llamaba Lola Chords

version 1
version 1

Whole song

Interactive

73 views 24 this week
no commentswrite comment
1 2 3 4 5
3 more votes to show rating
add to favorites
launch autoscroll
font size
0
reset
transpose
0
reset
display chords
guitar tuner
Autoscroll
slow
fast
+/-
esc
set tempo
stop
Help us to improve Ultimate-Guitar.com Take our survey!
×
Author
[Intro]
                E               F#              D
e|-----------------|---------------|----------------| 
B|-----------------|---------------|----------------|
G|-----------------|---------------|-------------7--|
D|-2-------------2-|-------------4-|-------------7--|
A|-0-0-2-0-4-2-0-2-|-0-2-0-4-2-0-4-|-0-2-0-4-2-0-5--|
E|---------------0-|-------------2-|----------------|(x4)

[Verse 1]

A                 E
Fuiste la niña de azul
F#m               D
en el colegio de monjas
A                 E
calcetines y coletas
F#m               D
y estabas loca por Paco.
A                 E
Exámenes y veranos,
F#m
vacaciones... y de Paco,
A                 E
ni el recuerdo de su sombra
F#m
ni el olor de su tabaco.

                E               F#              D
e|-----------------|---------------|----------------| 
B|-----------------|---------------|----------------|
G|-----------------|---------------|-------------7--|
D|-2-------------2-|-------------4-|-------------7--|
A|-0-0-2-0-4-2-0-2-|-0-2-0-4-2-0-4-|-0-2-0-4-2-0-5--|
E|---------------0-|-------------2-|----------------|(x2)

[Verse 2]

A                  E
Eres la chica de Andrés
F#m                D
y has sido la de tantos,
A                  E
eres la niña moderna
F#m                D
que nunca has roto un plato.
A                  E
Lola, nena de papá
F#m                D
no trabaja, pasa el rato.
A                  E
Bares, 'Pubs' y discotecas
F#m                D
y así vuelan los años.

[Chorus]

E                  F#m
Las vueltas que da la vida
D                  E
el destino se burla de tí.
E                  F#m
Dónde vas bala perdida,
D                  E
dónde vas triste de tí.
D                  E
Dónde vas triste de tí.

(Un,dos,tres,cua-)

                E               F#              D
e|-----------------|---------------|----------------| 
B|-----------------|---------------|----------------|
G|-----------------|---------------|-------------7--|
D|-2-------------2-|-------------4-|-------------7--|
A|-0-0-2-0-4-2-0-2-|-0-2-0-4-2-0-4-|-0-2-0-4-2-0-5--|
E|---------------0-|-------------2-|----------------|(x2)

[Solo]

e|------------------|----------------|-----------------|
B|------------------|----------------|-----------------|
G|------------------|----------------|-----------------|
D|-7-7-9-7-11-9-7---|-7-9-7-11-9-7---|-7-9-7-11-9-7-12-|
A|----------------7-|--------------9-|-----------------|
E|------------------|----------------|-----------------|(x2)

          (La gracia de esta parte es tokar por encima del mástil una si, una no)
e|--------|----------|---------|------------------|-------------------|---------|
B|--------|----------|---------|------------------|-------------------|---------|
G|--------|----------|---------|------------------|-------------------|---------|
D|-7--12--|----------|---------|------------------|-------------------|---------|
A|--------|-0-0-2-0--|-0-0-4-0-|-0-0-5-0--0-0-7-0-|-0-0-9-0--0-0-11-0-|-0-0-12--|
E|--------|----------|---------|------------------|-------------------|---------|

e|---------------|--------------------|---------------|--------------------|
B|---------------|--------------------|---------------|--------------------|
G|---------------|--------------------|---------------|--------------------|
D|-7-9-11-12-14--|-7-9-11-12-14-12-11-|-7-9-11-12-14--|-7-9-11-12-14-12-11-|
A|---------------|--------------------|---------------|--------------------|
E|---------------|--------------------|---------------|--------------------|

e|---------------|--------------------|----------------|---------------------|
B|---------------|--------------------|----------------|---------------------|
G|---------------|--------------------|----------------|---------------------|
D|-7-9-11-12-14--|-7-9-11-12-14-12-11-|-9-11-12-14-16--|-9-11-12-14-16-14-12-|
A|---------------|--------------------|----------------|---------------------|
E|---------------|--------------------|----------------|---------------------|

e|-----------------|-------------------|-------------------------------|
B|-----------------|-------------------|-------------------------------|
G|-----------------|-------------------|-------------------------------|
D|-11-12-14-16-18--|-11-12-14-16-18-19-|-11-12-14-16-18-19-21-19-18-16-|
A|-----------------|-------------------|-------------------------------|
E|-----------------|-------------------|-------------------------------|

e|-----------------------|----------------------|-15----|
B|-----------------------|----------------------|-------|
G|-----------------------|----------------------|-------|
D|-18-16-18-19-21-19-18--|-18-18-19-21-23-21-19-|-------|
A|-----------------------|----------------------|-------|
E|-----------------------|----------------------|-------|


[Verse 3]

A                     E
Se fueron los buenos tiempos
F#m                   D
la juventud ya se escapó.
A                     E
Papá ha muerto arruinado
F#m                   D
el dinero se esfumó.
A                     E
¡Pobre! Se encuentra en la calle,
F#m                   D
nunca nada supo hacer.
A                     E
Ahora quema su vida
F#m                   D
en 'barra americana' de 7 a 3.

                E               F#              D
e|-----------------|---------------|----------------| 
B|-----------------|---------------|----------------|
G|-----------------|---------------|-------------7--|
D|-2-------------2-|-------------4-|-------------7--|
A|-0-0-2-0-4-2-0-2-|-0-2-0-4-2-0-4-|-0-2-0-4-2-0-5--|
E|---------------0-|-------------2-|----------------|(x2)

[Verse 4]

A                     E
Dolores se llamaba Lola.
F#m                   D
'Hace la calle' hasta las 6,
A                     E
pues sin dinero en esta tierra
F#m                   D
¡ay, Dolores!, al burdel.
A                     E
Fuiste la niña de azul
F#m                   D
ahora eres la vieja verde.
A                     E
¡Como se porta la vida...
F#m                   D
cuando vale lo que tienes!

[Chorus]

E                     F#m
Las vueltas que da la vida
D                     E
el destino se burla de tí.
E                     F#m
Dónde vas bala perdida,
D                     E
dónde vas triste de tí.
D                     E
Dónde vas triste de tí.

                E               F#              D
e|-----------------|---------------|----------------| 
B|-----------------|---------------|----------------|
G|-----------------|---------------|-------------7--|
D|-2-------------2-|-------------4-|-------------7--|
A|-0-0-2-0-4-2-0-2-|-0-2-0-4-2-0-4-|-0-2-0-4-2-0-5--|
E|---------------0-|-------------2-|----------------|(x2)

[Solo]

[Acordes]

   A   E  F#m  D
e|---|---|----|----|
B|---|---|----|----|
G|---|---|----|--7-|
D|-2-|-2-|-4--|--7-|
A|-0-|-2-|-4--|--5-|
E|---|-0-|-2--|----|
Suggest correction
Give kudos to tab author, rate the tab!
1 2 3 4 5
comments
print report bad tab
guest
You may want to rate the tab now too:
select rating
Wanna post a correction for this tab? Suggest correction