Oops, an error
Loading. Please wait.

El Afilador Tab

3,860 views 6 this week
no commentswrite comment
1 2 3 4 5
please rate
add to favorites
launch autoscroll
font size
0
reset
how to read this tab
guitar tuner
Tab Pro tools
  • play this tab
  • loop segment
  • change instrument
  • show fretboard
  • metronome
×
Best way to learn
"El Afilador"
Autoscroll
slow
fast
+/-
esc
set tempo
stop
Difficulty
intermediate


1: intro (los arpegios pueden ser otros)

GTR1:

   Am             Bm             Em           DM
e |--------------|-s------------|---0--3------|-2---2--2--|
B |--1--0--1----1|1^3-3-5-3-----|----3--------|--3---3--3-|
G |--2--2--2-2--2|2^4-4-4-4-4---|--------h--2-|---2---2--2|
D |-----------2-2|2^4--------4--|-------0^2---|0----------| se repite
A |0-------------|-------------2|-------------|-----------| toda la
E |--------------|--------------|0------------|-----------| intro


Gtr2:

G |-----------------h--p------------------------------------12-11---11-|
D |--s---12-14----12^14^12------------12---h--p--s----------------14---|
A |12^14-------------------14-12----14---14^17^14^12-------------------|
E |-------------------------------15-----------------12----------------|


e |--------------------------------------------------------------s---s----|
B |---------------------------------------ha-ha--------ha-ha---12^15-^17--|
G |---------------------------------------12-11--------14-12--------------|
D |------s-----------PM...............------------------------------------|
A |------^14---12-12---12------12-----s--------------12-------------------|
E |12-10-----15----------15-12---15-12^15-------14-15---------------------|


e |15-15---------------------------------------------------------------------|
B |------17--12-15-12---b--r--------b--r--p-----------------b--r---b--r------|
G |-------------------14^15^14-12-14^15^14^12-----------14^15^14-14^15^14-12-|
D |-------------------------------------------14---12-14---------------------|
A |----------------------------------------------14--------------------------|


   s
e |^17-17-17-17---------------------------------------------------------------|
B |-------------12-15-12---b--r-----12-15-12--b--r------------------s--s------|
G |----------------------14^15^14-----------14^15^14-12-12--------12^14^16----|
D |-------------------------------------------------------14------------------|
A |---------------------------------------------------------------------------|


e |-----------------------------------------------------------------------------|
B |--s--s-----s----------------------s------s--s--------------------------------|
G |16^14^12-12^11------------12-14-12^16--16^14^12--s--s------------------------|
D |--------------14-14-12-14----------------------14^16^14----s--s--------------|
A |---------------------------------------------------------12^14^12---s--s-----|
E |------------------------------------------------------------------12^10^12---|
     h  s     s  p          h  p
e |12^15^19-19^17^15--p---15^17^15---p-----------s--s-------------------------|
B |-----------------17^15----------17^15--20---17^15^17---12-15-12--b--r------|
G |---------------------------------------------------------------14^15^14----|
D |---------------------------------------------------------------------------|


e |--------------b15------------------------------------------------------------|
B |----------(15)^16------------------------------------------------------------|
G |------------------14-12-14------h-p-h-p-h-p-h-2--------4----------h----------|
D |14-12-14-----------------------0^2^0^2^0^2^0^5-2--2-0-5--2-----h-0^2----h----|
A |------------------------------------------------------------h-0^2-----12^14--|
E |-----------------------------------------------------------0^3---------------|


e |--------------------------------------------------------------------------|
B |----------b--r--------------------s------s--s--s--s--------s--------------|
G |--p--12-14^15^14-12-------12-14-12^16--14^12^14^12^11-12-12^11-12-11------|
D |12^14--------------12-----------------------------------------------12-14-|
A |-----------------------12-------------------------------------------------|
E |---------------------15---------------------------------------------------|

e |15-14-12-12---------------------------------------------------------------|
B |-------------b--r------12-------------------------------------------------|
G |-----------14^15^14-12---14-12--------------------------------------------|
D |--------------------------------------------------------------------------|
A |---------------------------------h--p--h--p-------------------------------|
E |-------------------------------10^12^10^12^10-14-(tremolo)-15(trem)-14-12-|

                                 h        p
e |---15--15-15----------------12^15-19-19^17------------s--s-------22-20-19---|
B |-17--17---------17-15-13-15----------------20-19-20-17^15^17--17---------17-|
G |----------------------------------------------------------------------------|
D |----------------------------------------------------------------------------|
A |----------------------------------------------------------------------------|
E |----------------------------------------------------------------------------|


e |---22-20-19--p-------------------------------------------------------------|
B |17---------20^17---17-------------------15-----------p---------------------|
G |-----------------19----s--s--s--s----12--------14--12^11-11-12-------------|
D |---------------------19^17^19^12^14----------12---------------14-----------|
A |-----------------------------------------------------------------14---12---|
E |--------------------------------------------------------------------15-----|

2: Estrofas (primero es una intro, pero el acompañamiento es igual que estrofa)

gtr1:
|E5 G5|C5 D5|

3: punteillo 1

 D5 anterior      E        G      C           D      E       G        C
e |--------------|---------------|------------------|----------------|----------|
B |--------------|---------------|------------------|--------------h-|h-p-p-----|
G |------------h-|-4--p-p-h----h-|4--p-p----------h-|-4--p-p--7---4^5|^7^5^4--4-|
D |-----------5^7|---7^5^4^5--5^7|--7^5^4--------5^7|---7^5^4--------|-------7--|
A |--------------|---------------|--------7-5-7-----|----------------|----------|
E |--------------|---------------|------------------|----------------|----------|

D5 anter E       G      C           D     E       G        C
e |-----|--------------|-----------------|--------------|---------------------------|
B |-----|--------------|-----------------|------------h-|h-p-p---p-p----------------|
G |---h-|4--p-p-h----h-|4--p-p---------h-|4--p-p--7--4^5|^7^5^4-7^5^4-h-p-p---------|p-p
D |--5^7|--7^5^4^5--5^7|--7^5^4-------5^7|--7^5^4-------|-------------^7^5^4-7^5^4--|
A |-----|--------------|--------7-5-7----|--------------|---------------------------|
E |-----|--------------|-----------------|--------------|---------------------------|


(los harmónicos que suenan son en los trastes 5 y 7 de B,G,D,E)


4: estrofa

E                 G         C                D
Está regresando a casa por donde se ahoga el sol y

E                 G       C            D
va cerrando los ojos para poder ver mejor

etc.....


5: puente: punteillo 2 (la otra guitarra hace los punteos una octava + alta)
   A      B      E          D             A      B      E          D
e |------|------|----------|-------------|------|------|--8-5-5---|------|
B |------|------|----------|---5---------|------|------|-----7-7-4|-7-4--|
G |------|4-4---|-------4--|----7-4-7-4--|------|4-4---|----------|------|
D |7--7-5|---7-5|---h--5--5|7-----------5|7--7-5|---7-5|----------|------|
A |------|------|7-5^7-----|-------------|------|------|7----------------|
E |------|------|----------|-------------|------|------|-----------------|


G |--4------------------|
D |7---7-5-7-5---5------|
A |------------7---7-5-7|
E |---------------------|


6: estribillo

|G G      D       |A    A G A|G G       D       |A     A B A|
    Noche niebla....            tiempo del afilador

|G G      D       |A    A G A| C             D       | C               D  |
   Es que nunca                solitario soñador       solitario perdedor


7: punteillo 1 + solo (acompaña como estrofa -probar en GM, Em, G Pm...-)

8: puente 2: acordes de estrofa pero "cortados" +

e |15-12---12-----------------------------------------------------------------|
B |------15--15-12-15-12--12--------------------------------------------------|
G |---------------------14---14-12-14-12---12---------------------------------|
D |--------------------------------------14--14-12-14-12---12-----------------|
A |------------------------------------------------------14--14-12-14-12--12--|
E |---------------------------------------------------------------------15--15|

en canon varias guitarras

9: estrofas + punteo 2 + estrofa + punteo 2 + estribillo + puente (parte 5) +

solo + punteo 1 + puente 2

**************************
http://usuarios.lycos.es/rakutan/
comments
We did not receive enough feedback on this tab! Please rate:
print report bad tab
1 2 3 4 5
I want to post or [tab]
guest
You may want to rate the tab now too:
select rating
Please do not post tabs as comments. Select "correction" instead!