Oops, an error
Loading. Please wait.

Hotel Tab

26 views 1 this week
no commentswrite comment
1 2 3 4 5
3 more votes to show rating
add to favorites
launch autoscroll
font size
0
reset
how to read this tab
guitar tuner
Autoscroll
slow
fast
+/-
esc
set tempo
stop
+ Tabulados de made in spain!                   +
+ (                        +
+++++++++++++++++++++++++++++++++++++++++++++++++

1 |---------------------------------------------------------------------
2-|---------------------------------------------------------------------
3-|---------------------------------------------------------------------
4-|--------------5------------------------------------------------------
5-|-----3--2-----3------------------------------------------------------
6-|-----------3---------------------------------------------------------

       Asi dos veces y a la tercera comienza haciendo Palm mute 
(ahogando) en
 la cuarta nota que es una quinta.

1 |---------------------------------------------------------------------
2-|---------------------------------------------------------------------
3-|---------------------------------------------------------------------
4-|----------------------5--5--7-------------------5--5--7--------------
5-|----------2--3--2-----3--2--5----------3--2-----3--2--5--------------
6-|----3--5-----------3-------------------------3-----------------------
  
                                          (Cuatro veces)

1 |---------------------------------------------------------------------
2-|---------------------------------------------------------------------
3-|---------------------------------------------------------------------
4-|----5----7----------5--5--7------------------------------------------
5-|----3----5----------3--2--5------------------------------------------
6-|--------------------------------------------------------------------

     Dime  donde...    que hay lagrimas...   (haciendo palm mute)

1 |---------------------------------------------------------------------
2-|---------------------------------------------------------------------
3-|---------------------------------------------------------------------
4-|-------------------------5--------7----------------------------------
5-|----3--2-----2-----3-----3--------5--------------------2--3--2------2
6-|----------3--0-----1-----------------------------3--5-----------3---0

                Todos..     descansan...
Suggest correction
Give kudos to tab author, rate the tab!
1 2 3 4 5
comments
print report bad tab
guest
Wanna post a correction for this tab? Suggest correction