Oops, an error
Loading. Please wait.

Massacre Tab

37 views 1 this week
no commentswrite comment
1 2 3 4 5
3 more votes to show rating
add to favorites
launch autoscroll
font size
0
reset
how to read this tab
guitar tuner
×
Best way to learn
"Massacre"
Autoscroll
slow
fast
+/-
esc
set tempo
stop
+ Tabulados de made in spain!                   +
+ (                        +
+++++++++++++++++++++++++++++++++++++++++++++++++

INTRO
|--7-5-4---------7-5-4------------|
|--------5-5-4-5-------5-5-4-5----|
|------------------------------7--|
|---------------------------------|
|---------------------------------|
|---------------------------------|

- CON CADA ACORDE TOCAR LO DE ABAJO - E5(5TH) D5 G5 B5
|-------------------------------------|
|-------------------------------------|
|-------------------------------------|
|-------------------------------------|
|----10----------------10-------12----|
|-0*----12-0*-10-12-0*----12-0*----10-|
Suggest correction
Give kudos to tab author, rate the tab!
1 2 3 4 5
comments
print report bad tab
guest
You may want to rate the tab now too:
select rating
Wanna post a correction for this tab? Suggest correction