Oops, an error
Loading. Please wait.

Nena, Te Voy A Dejar Tab

141 views 1 this week
no commentswrite comment
1 2 3 4 5
3 more votes to show rating
add to favorites
launch autoscroll
font size
0
reset
how to read this tab
guitar tuner
Autoscroll
slow
fast
+/-
esc
set tempo
stop
Help us to improve Ultimate-Guitar.com Take our survey!
×
+ Tabulados de made in spain!                   +
+ [                        +
+++++++++++++++++++++++++++++++++++++++++++++++++

PUNTEO DEL PRINCIPIO
|----------------------------------------|
|----------------------------------------|
|----------------------------------------|
|---5/7----------------------------------|
|--------7--8--------7--------5----------|
|--------------7--8-----7--8-----3--5/7--|

INTRO
|-----------5-----------3-------1-------3-----------|
|-------------5---------3-------1---------3---------|
|---------5-----5---------------------------3-------|
|-------7-------------5-------3-------5-------5-----|
|-----7-------------5-------3-------5-----------5---|
|---5-------------3-------1-------3-----------------|

VERSO
(nena te....)
A5 G5 F5 
|-----------------|
|-----------------|
|-----------------|
|-----------------|
|--------2-3-4-5--|
|--------0-1-2-3--|

ESTRIBILLO (SÓLO SE TOCA UNA VEZ Y LUEGO VUELVE A A5 G5 F5)
(y en el fondo...)
C5 G5 F5 
|-----------------|
|-----------------|
|-----------------|
|-----------------|
|--------2-3-4-5--|
|--------0-1-2-3--|
Suggest correction
Give kudos to tab author, rate the tab!
1 2 3 4 5
comments
print report bad tab
guest
You may want to rate the tab now too:
select rating
Wanna post a correction for this tab? Suggest correction