Oops, an error
Loading. Please wait.

No Me Mires Tab

231 views 3 this week
no commentswrite comment
1 2 3 4 5
3 more votes to show rating
add to favorites
×
Save as Personal and add changes to this tab that will be seen only by you. Learn more ›
×
You can save this tab as Personal to edit and correct it or add notes. All changes will be seen only by you. Learn more »
save as personal
new!
launch autoscroll
font size
0
reset
how to read this tab
guitar tuner
Autoscroll
slow
fast
+/-
esc
set tempo
stop
Durante toda la canción hay 2 guitarra, una que es la que he 
puesto y la que mas se oye y otra que no la he puesto pero lo 
que hace es tocar todo los acordes de forma arpegiada: 

versos-> LAm MIm  estribillo->LAm REm MIm REm MIm LAm DO SOL MI


[ PARTE A1                                         FIN A1 ]                      
|----0-----------------------------0-------------<12>-------|
|------3-1-0-------0-------------1---3-1-0----------<12>----|
|--2---------(2)-----2-0---------0---------(2)--------<12>--|  
|--2-------------2---------------0-------------2------------|
|--0-------------2---------------2-------------2------------|
|----------------0-------0^3^0^3---------------0------------|


[ PARTE A2                                     FIN A2 ]  
|----0-----------------------------0-------------<12>--|
|------3-1-0-------0-------------1---3-1-0-------------|
|--2---------(2)-----2-0---------0---------(2)---------|  
|--2-------------2---------------0-------------2-------|
|--0-------------2---------------2-------------2-------|
|----------------0-------0^3^0^3---------------0-------|

 
            Esto lo toca        |-------3--5---7--|
            la 2ª guitarra,     |--5--5--------0--|
            esta en línea       |-----------------|
            con LA parte A2     |-----------------|
                                |-----------------|
                                |-----------------| 
   

[ PARTE B                      FIN B ]
|----0----------------------0--------|
|------3-1-0-------0------0---0------|
|--2---------(2)-----2-0--------0----| 
|--2-------------2----------------0--|
|--0-------------2-------------------|
|----------------0-------------------|
 
 

[ PARTE C1                                                FIN C1 ]                                                      
|----------1--1-0-------(3)--3-3-3-3---1--1-1-1-1---(3)-3-3-3-3---|
|----------3------3-(1)-(0)---0-0-0-0--3---3-3-3-3--(0)--0-0-0-0--|
|--2---2---2-------------0-----0-0-0---2----2-2-2----0----0-0-0---|  
|--2---2---0-------------2-------------0-------------2------------|
|--0^3^0^3--------------------------------------------------------|
|-----------------------------------------------------------------|
 
  
[ PARTE C2                                  FIN C2 ] 
|----(1)-------(1)---1-X-1-1---0--(3)-(3)-(3)-(3)-----|
|-(1)-----------1----1-X-1-1---0--(0)--(0)-(0)-(0)----|
|--2-----------0--X--0-X-0-0---0--(0)----(0)-(0)-(0)--|  
|--2----------2---X--0-X-0-0---2----------------------|
|--0----0-2-3-----X--2-X-2-2---2----------------------|
|--------------------3-X-3-3---0----------------------|

 
PARTE A1
PARTE A2

PARTE B
NO ME MIRES CUANDO CRUCES 
PARTE B 
POR LA ACERA DE MI CALLE
PARTE B 
NO ME MIRES CUANDO PASES 
PARTE B 
POR ESTA CALLE SIN LUCES 
 
PARTE C1
MIRAME CUANDO LA LUNA
SE ASOMA POR LA VENTANA 
PARTE C2
Y TE DEJAS ABRAZAR
ACOSTADA AQUI EN MI ALMOHADA 

PARTE A2  

PARTE B
NO ME MIRES CUANDO ESCUCHES 
PARTE B 
AL RELOJ DECIR QUE ES TARDE
PARTE B 
NO TE ESCONDAS NO TE MARCHES 
PARTE B 
COMO ESTRELLAS ENTRE NUBES

PARTE C1
MIRAME CUANDO LA LUNA
SE ASOMA POR LA VENTANA
PARTE C2
Y TE DEJAS ABRAZAR
ACOSTADA AQUI EN MI ALMOHADA


Este es el solo, los acordes que están arriba son los que hace la 2ª guitarra 

  RE         MIm            MIm          DO     SOL  
|---------------------------------------------------
|---6s7-7-7--5^7s8-7-7^5-5--5s8-7-5-3-5--7^8-6-5----
|----------------------------------------6^7-5-4-4--
|------------------------------------------------5--
|---------------------------------------------------
|---------------------------------------------------

 RE         MIm             SOL                     DO       SOL    
--------------------------------7-11-7---------------------------|
--6^7-7-7-7-8s10-8-8-7-7s5--7^8--------8-7-5-8-5-3--7^8-6-4^5----|
----------------------------------------------------6^7-5-3^4-4--|
--------------------------------------------------------------5--|
-----------------------------------------------------------------|
-----------------------------------------------------------------|


PARTE B con la 2ª guitarra haciendo esto:

|-0------------------|
|---3^5---0----------|
|-----------0^2------| 
|---------------0^2--|
|--------------------|
|--------------------|

 
PARTE B 
QUE PENA ME DA ¡QUE PENA! 
PARTE B
CUANDO TE VEO MARCHAR
PARTE B
QUE SOLO Y TRISTE ME DEJAS 
PARTE B
CUANDO LA NOCHE SE VA
 
PARTE C1
DIME POR QUE NO TE QUEDAS
ESTA VEZ UN POCO MÁS 
PARTE C2
ES QUE QUIERES QUE ME MUERA
O ES QUE ME QUIERES MATAR
PARTE C2
QUE ME MUERA
O ES QUE ME QUIERES MATAR


PARTE A1 con la 2ª guitarra haciendo esto:

|--5-7-8-7-7^8-7-5--5-7-------5-7-8-7-7^8-7-5--5-7-6s7--|
|----------------------6s5------------------------------|
|-------------------------------------------------------|
|-------------------------------------------------------|
|-------------------------------------------------------|
|-------------------------------------------------------|

|-------0--|
|-------1--|
|-------2--|  
|-2-----2--|
|--3-2--0--|
|----------|


Bueno espero que os suene, si tenéis alguna duda o queréis 
contadme que tal os suena o para la que queráis, mi e-mail 
es mosquito@
Suggest correction
Give kudos to tab author, rate the tab!
1 2 3 4 5
comments
print report bad tab
guest
Wanna post a correction for this tab? Suggest correction