Oops, an error
Loading. Please wait.

No Me Pesa Es Mi Amigo Tab

38 views 1 this week
no commentswrite comment
1 2 3 4 5
3 more votes to show rating
add to favorites
launch autoscroll
font size
0
reset
how to read this tab
guitar tuner
×
Best way to learn
"No Me Pesa Es Mi Amigo"
Autoscroll
slow
fast
+/-
esc
set tempo
stop
esta es una cancion de mi banda favorita
oojala les sirva..


INTRO

  Em       D5        Am       Bm
e-----0--------0-----------------0-----
b-------0--------3------1----------3---
g--------0---2----2-------0----0----0--
d----------0----------2----2-4---------
a---2---------------0------------------
e-0------------------------------------
                                          x2
e-----0--------0-----------------5-----
b-------0--------3------1----------3---
g--------0---2----2-------0----0----0--
d----------0----------2----2-4---------
a---2---------------0------------------
e-0------------------------------------


VERSO

hijos de la misma noche.....
  Em       D5        Am       Bm
e-----0--------0-----------------0-----
b-------0--------3------1----------3---
g--------0---2----2-------0----0----0--
d----------0----------2----2-4---------
a---2---------------0------------------
e-0------------------------------------


                                           x2

e-----0--------0-----------------5-----
b-------0--------3------1----------3---
g--------0---2----2-------0----0----0--
d----------0----------2----2-4---------
a---2---------------0------------------
e-0------------------------------------


---(al Am le quitan el dedo anular es decir que en la tercera
   cuerda suene sol en vez de la))----


Em           D5             Am
a su madre le llamaban ines, de la mia
         Bm          Em          D5
casi nada recuerdo, pero creo que todos
         Am      D5
le decian olvido      ...................


(siempre juntos desde niños.......

Em D5 Am Bm


Am                     Bm
maletas llenas de fracasos,
Am                     Bm
puertas cerradas alli donde fuimos
Am                     Bm
certeza de que no llegaras a nada
Am                 D
si no es com tu amigo


CORO
G    Bm     Am       D
no me pesa es mi amigo
G    Bm     Am       D
no me pesa es mi amigo
G    Bm     Am       D
no me pesa es mi amigo
G    Bm     Am       D
no me pesa,no me pesa es mi amigo

--EL RESTO ES CASI LO MISMO--

--LES DEBO EL SOLO--

----------------------------------------------------------------

LETRA

Hijos de la misma noche,
del mismo mes y, tal vez, por desgracia
hijos del mismo siglo.
Nacidos en el mismo barrio del extrarradio
en la calle me decían que quizás
su padre también había sido el mío.
A su madre le llamaban Inés,
de la mía casi nada recuerdo
pero creo que todos le decían olvido.
No viene a cuento hoy mi nombre
pues esta canción que ahora escribo,
es la historia de un hombre que ha muerto,
se llamaba Juan Amigo.

Siempre juntos desde niños
mezclando risas, castigos
engañando al mundo entero, pero nunca nos mentimos.
Confieso que de vez en cuando nos metimos en líos,
algunos pequeños delitos,
tan iguales, tan distintos.
Sabía encontrarme cuando estaba perdido
perdonarme, pues sabía q un hombre
solo es un ángel caído.
Y que una promesa verdadera
es la que se hace a un amigo,
solo canto esta canción entera al que viaja conmigo.

Maletas llenas de fracasos
puertas cerradas allí donde fuimos,
certeza de que vayas a donde vayas
nunca llegarás a nada , si no es con tu amigo.

No me pesa, es mi amigo.
No me pesa, es mi amigo.
No me pesa, no me pesa...es mi amigo.


Noche de enero, de frío que abrasa
negros presagios escupen avisos
ciegos de noche, desafiando peligros.
Tristes tiempos en que la mirada de un hombre
que se cruza en tu camino
es la mirada de un enemigo.
Las palabras están gastadas,
manos cerradas empujan, un hombre ha caido,
el trabajo de los puños, lo rematan los chuchillos.
La sangre se escapa, todos se marchan
solo la muerte no escapa,
solo la muerte y mi amigo   Juan Amigo.

¡ Déjalo loco! No puedes, aconsejaban a gritos
sobre sus hombros, lejos de la muerte
me llevó como lleva sus cromos un niño.
"Sabía que vendrías" susurraba a su oido
cuando sus ojos se volvieron negros de plata
cambió su destino por el mío.
Se enredó la tristeza en mis cabellos
qué corto ha sido el camino,
muerto antes de haber nacido.
Amargura en las grietas de los suspiros
él se ha muerto y yo sigo vivo
así pasó, yo lo cuento ante la tumba de mi amigo.

Maletas llenas de fracasos
puertas cerradas allí donde fuimos,
certeza de que vayas a donde vayas
nunca llegarás a nada , si no es con tu amigo.

No me pesa, es mi amigo(sabía que vendrías)
No me pesa, es mi amigo(sabía que vendrías)
No me pesa, no me pesa... es mi amigo.


SI TIENEN DUDAS SOLO ESCRIBAN A MI CORREO
---(julianrock4ever@
 ---------------------------------
   -----------------------------
     -------------------------
       ---------------------
         -----------------
           -------------
             ---------
               -----
                 -
Suggest correction
Give kudos to tab author, rate the tab!
1 2 3 4 5
comments
print report bad tab
guest
You may want to rate the tab now too:
select rating
Wanna post a correction for this tab? Suggest correction