Oops, an error
Loading. Please wait.

Ojos Tab

11 views 1 this week
no commentswrite comment
1 2 3 4 5
3 more votes to show rating
add to favorites
launch autoscroll
font size
0
reset
how to read this tab
guitar tuner
Autoscroll
slow
fast
+/-
esc
set tempo
stop
Help us to improve Ultimate-Guitar.com Take our survey!
×
INTRO

  Gm           Gm          Gm            A#
e-------------------------------------------------
b-------------------------------------------------
g-------3--5--------5--3--------5--3------3-------
d-----------------3-----------3-------------------   x2
a---5-----------5-----------5-----------5---1/3-3-
e-3-----------3-----------3-----------3-----------


VERSOS

   Gm        A#               F
e-------------------------------------------------
b---------------1--------1-------1----------------
g-----3--5--------3--------3----------------------
d-------------3--------3--------------------------
a---5-------1----------------------1/3-33---------
e-3------------------0--------1-------------------

--------------------------------------------------------


Gm     A#
ojos memoria y rencor de dios
F                     F
pozos de los deseos, agujeros de los sueños
Gm
fosas de la ilucion
  Gm
Testigos de todos los días
A#
Delatores de la vejez
F
No son ojos porque los ves
Gm
Son ojos porque te miran......

----toda la cancion sigue igual----

si tienen dudas solo escriban a mi correo
--------julianrock4ever@
  --------------------------------------
    ----------------------------------
      ------------------------------
        --------------------------
          ----------------------
            ------------------
              --------------
                ----------
                  ------
                    --
Suggest correction
Give kudos to tab author, rate the tab!
1 2 3 4 5
comments
print report bad tab
guest
You may want to rate the tab now too:
select rating
Wanna post a correction for this tab? Suggest correction