Oops, an error
Loading. Please wait.

Pardao Chords

version 2
version 2

Whole song

273 views 1 this week
no commentswrite comment
1 2 3 4 5
3 more votes to show rating
add to favorites
launch autoscroll
font size
0
reset
transpose
0
reset
display chords
guitar tuner
Autoscroll
slow
fast
+/-
esc
set tempo
stop
Help us to improve Ultimate-Guitar.com Take our survey!
×
+ Servidor FTP de la Universidad de Leon        +
+   +
+++++++++++++++++++++++++++++++++++++++++++++++++

   Entre los charcos de la última lluvia...  ...Y nadie sabe cómo pasa
su                                                 vida...   

   G     D        Am    C     D                 Em    D     C

e:-3-----2--3-----0-----0-----2-----------------0-----2-----0--------------|
B:-3-----3--3-----1-----1-----3-----------------0-----3-----1--------------|
G:-0-----2--2-----2-----0-----2-----------------0-----2-----0--------------|
D:-0-----0--0-----2-----2-----0-----------------2-----0-----2--------------|
A:-2--------------0-----3-----------------------2-----------3--------------|
E:-3--------------------------------------------0--------------------------|


  ...Mira que vida lleva...   
                        
     G     D     C     D

e:----------------------|
B:----------------------|
G:---------7-----5-----7|
D:---5-----7-----5-----7|
A:---5-----5-----3-----5|
E:---3------------------|
Suggest correction
Give kudos to tab author, rate the tab!
1 2 3 4 5
comments
print report bad tab
guest
You may want to rate the tab now too:
select rating
Wanna post a correction for this tab? Suggest correction