Oops, an error
Loading. Please wait.

Pobre Jugador Tab

155 views 1 this week
no commentswrite comment
1 2 3 4 5
3 more votes to show rating
add to favorites
launch autoscroll
font size
0
reset
how to read this tab
guitar tuner
×
Best way to learn
"Pobre Jugador"
Autoscroll
slow
fast
+/-
esc
set tempo
stop
[RIFF A
    A    C    G    E    A  C  G  E  E.............
E ---------------------------------------------------|
B ---------------------------------------------------|
G -------5-x---------------5-------------------------|
D --7-x--5-x--5-x--2-x--7--5--0--2--2-2-2-2-2-2-2-2--|
A --7-x--3-x--5-x--2-x--7--3--0--2--2-2-2-2-2-2-2-2--|
E --5-x-------3-x--0-x--5-----0--0--0-0-0-0-0-0-0-0--|

                                         FIN A] 
    A    C    G    E    A  C  G  E  
E ----------------------------------------------|
B ----------------------------------------------|
G -------5-x---------------5--------------------|
D --7-x--5-x--5-x--2-x--7--5--0--2--------------|
A --7-x--3-x--5-x--2-x--7--3--0--2--------0--3--|
E --5-x-------3-x--0-x--5-----0--0--0--3--------|

[ RIFF B                                                           FIN B ]   
    F   G   F   G   C   C  D A   A  E  F  G  G .............
E ------------------------------------------------------------------------|
B ------------------------------------------------------------------------|
G ------------------5-X-5--7----------------------------------------------|
D --3---5---3---5---5-X-5--7-7-X-7--2--3--5--5-5-5-5-5-5-5-5--------------|
A --3---5---3---5---3-X-3--5-7-X-7--2--3--5--5-5-5-5-5-5-5-5--------0--3--|
E --1---3---1---3------------5-X-5--0--1--3--3-3-3-3-3-3-3-3---0--3-------|

  ARREGLOS
E -----------------------|----|-------------------------|----|
B -----------------------|----|-------------------------|----|
G --------4L5L4----------|----|---------7L8L7-----------|----|
D --6L7-7-------7-5------|-x2-|--9L10-10------10-9------|-x2-|
A ------------------(7)--|----|-------------------(10)--|----|
E -----------------------|----|-------------------------|----|


EMPIEZA CON EL [RIFF A] 2 VECES

DESPUES LA SECUECIA SIEMPRE ES LA MISMA:
       [RIFF A]
       [RIFF B]
       [RIFF A] CON LOS ARREGLOS

LA ULTIMA PARTE QUE ES DONDE HACE UN PEDAZO DE SOLO QUE NO HE SACADO PRIMERO ES: 
       [RIFF A]
DESPUES HASTA EL FINAL 
       F  G  A  D
Suggest correction
Give kudos to tab author, rate the tab!
1 2 3 4 5
comments
print report bad tab
guest
You may want to rate the tab now too:
select rating
Wanna post a correction for this tab? Suggest correction