Oops, an error
Loading. Please wait.

Si Pudiera Tab

version 1
version 1

Whole song

249 views 1 this week
no commentswrite comment
1 2 3 4 5
3 more votes to show rating
add to favorites
launch autoscroll
font size
0
reset
how to read this tab
guitar tuner
×
Best way to learn
"Si Pudiera"
Autoscroll
slow
fast
+/-
esc
set tempo
stop
+ Tabulados de made in spain!                   +
+ [                        +
+++++++++++++++++++++++++++++++++++++++++++++++++

INTRO (SIN DISTORSIÓN)
|-----3-----------------------0-----------3-------|
|-------3---------1^0-----------3-----------3-----|
|---------0-----2-----2-----0-----0-----0-----0---|
|-------------2-----------0-----------2-----------|
|-----------0-----------2-----------3-------------|
|---3---------------------------------------------|

VERS0 (DISTORSIÓN)
|-------------------------------------------------------|
|-------------------------------------------------------|
|--------7-------5-------7-------5\7-------7-------5----|
|----7---7---5---5---7---7---5---5\7---7---7---5---5----|
|----7---5---5---3---7---5---5---3\5---7---5---5---3----|
|----5-------3-------5-------3---------5-------3--------|

SI PUDIERA
A LA TIENDA DE LOS SUEÑOS
IR A COMPRAR
CON POCO DINERO
TODO LO QUE HASTA AHORA
AUN PUDE GANAR
Y SI ALLI VENDIERAN
BILLETES PARA EL TREN
DE OTRA OPORTUNIDAD 

PUENTE
|----------------------5----------6-----------|
|------------------------5----------6---------|
|--------7---4--5----------5----------6---7---|
|----7---7---4--5-------------------------7---|
|----7---5---2--3---7----------8----------5---|
|----5--------------5----------6--------------|

ENCARGARÍA
UN TICKET DE IDA
A LA ESTACIÓN PERDIDA
DONDE MI VIDA FUE A DESCARRILAR

OTRA VEZ EL VERSO Y EL PUENTE Y DESPUÉS:

ESTRIBILLO
|--------------------|
|--------------------|
|------------4---5---|
|----5---7---4---5---|
|----5---7---2---3*--|
|----3---5-----------|

QUIEN NO HIZO.......

LA SEGUNDA GITARRA TOCA LA INTRO
*EN UNO DE LOS SALTOS A ESTE ACORDE SE TOCA(PARA ACABAR EL ESTRIBILLO):
|-----|
|-----|
|--7--|
|--7--|
|--5--|
|-----|
Suggest correction
Give kudos to tab author, rate the tab!
1 2 3 4 5
comments
print report bad tab
guest
You may want to rate the tab now too:
select rating
Wanna post a correction for this tab? Suggest correction