Oops, an error
Loading. Please wait.

Siempre Con Miedo Chords

35 views 1 this week
no commentswrite comment
1 2 3 4 5
3 more votes to show rating
add to favorites
launch autoscroll
font size
0
reset
transpose
0
reset
display chords
guitar tuner
×
Best way to learn
"Siempre Con Miedo"
Autoscroll
slow
fast
+/-
esc
set tempo
stop
<---Riff--->
e|---5-----|---3-------|-------3---|---3-----|
B|-----3---|---------3-|---0^1---1-|-----3-1-|
G|-0-----0-|-----0^4---|-2---------|---------|
D|---------|-2---------|-----------|-0-------|
A|---------|-----------|-----------|---------|
E|---------|-----------|-----------|---------|

Acordes:

   G   Em*  Am*  D    Em   Bm   Am   C    LAm0
e|--3--|--3--|--3--|--2--|--0--|--2--|--0--|--0--|--0--|
B|--3--|--3--|--1--|--3--|--0--|--3--|--1--|--1--|--1--|
G|--0--|--0--|--2--|--2--|--0--|--4--|--2--|--0--|--0--|
D|--0--|--2--|--2--|--0--|--2--|--4--|--2--|--2--|--2--|
A|--2--|--2--|--0--|--0--|--2--|--2--|--0--|--3--|--0--|
E|--3--|--0--|--0--|--x--|--0--|--2--|--0--|--0--|--0--|


Intro:
------
Riff x2

Estrofa:
--------
G        Em*                  Am*
He construido castillos en la arena
D                           G
tan hermosos que me conformaría
Em*                        Am*
que las olas de mis penas los derribaran
D                               G 
y así por fin poder dormir en sus ruinas.


G        Em*                  Am*
He construido mis noches en días
D                           G
en que las risas eran muecas sin alegría
Em*                        Am*
y sobre los cimientos de mis pensamientos
D                               G 
con ladrillos de tiempo fabriqué mis pesadillas.

He construido sobre tu amor mi vida
Alicia sin tierra de las maravillas
princesa del país de las tristezas
cenicienta sin hada madrina.

He construido mil horas vacías
pensando... la suerte está en contra mía
pozo negro de mi vida rota
eslabón de esta cadena partida.


Estribillo:
-----------
Em Bm Am                                        Em Bm Am
             Siempre con miedo y sin saber de que
                                        Em Bm Am
esperando al mensajero que nunca aparece
                              Em Bm Am
un día más largo que un siglo
C                        Am-Am0-LAm  LAm-LAm0-LAm
y por fin loco de contento
C                        D
o loco y por eso contento.

-------------------------------------------------------------
Y seguimos hasta el final, todo igual
Espero que os haya gustado la transcripción de esta cancion de los suaves
que para mi es de lo mejor que tiene. Cualquier sugerencia ya sabéis.
Un saludo!
Suggest correction
Give kudos to tab author, rate the tab!
1 2 3 4 5
comments
print report bad tab
guest
You may want to rate the tab now too:
select rating
Wanna post a correction for this tab? Suggest correction